  0
SECTION
  2
HEADER
  9
$ACADVER
  1
AC1015
  9
$ACADMAINTVER
 70
     6
  9
$DWGCODEPAGE
  3
ANSI_932
  9
$INSBASE
 10
0.0
 20
0.0
 30
0.0
  9
$EXTMIN
 10
0.0
 20
0.0
 30
0.0
  9
$EXTMAX
 10
17820.0
 20
12600.0
 30
0.0
  9
$LIMMIN
 10
0.0
 20
0.0
  9
$LIMMAX
 10
17820.0
 20
12600.0
  9
$ORTHOMODE
 70
     0
  9
$REGENMODE
 70
     1
  9
$FILLMODE
 70
     1
  9
$QTEXTMODE
 70
     0
  9
$MIRRTEXT
 70
     1
  9
$LTSCALE
 40
1500.0
  9
$ATTMODE
 70
     1
  9
$TEXTSIZE
 40
0.2
  9
$TRACEWID
 40
0.05
  9
$TEXTSTYLE
  7
Standard
  9
$CLAYER
  8
0
  9
$CELTYPE
  6
ByLayer
  9
$CECOLOR
 62
   256
  9
$CELTSCALE
 40
1.0
  9
$DISPSILH
 70
     0
  9
$DIMSCALE
 40
50.0
  9
$DIMASZ
 40
0.18
  9
$DIMEXO
 40
0.0625
  9
$DIMDLI
 40
0.38
  9
$DIMRND
 40
0.0
  9
$DIMDLE
 40
0.0
  9
$DIMEXE
 40
0.18
  9
$DIMTP
 40
0.0
  9
$DIMTM
 40
0.0
  9
$DIMTXT
 40
0.18
  9
$DIMCEN
 40
0.09
  9
$DIMTSZ
 40
0.0
  9
$DIMTOL
 70
     0
  9
$DIMLIM
 70
     0
  9
$DIMTIH
 70
     1
  9
$DIMTOH
 70
     1
  9
$DIMSE1
 70
     0
  9
$DIMSE2
 70
     0
  9
$DIMTAD
 70
     0
  9
$DIMZIN
 70
     0
  9
$DIMBLK
  1

  9
$DIMASO
 70
     1
  9
$DIMSHO
 70
     1
  9
$DIMPOST
  1

  9
$DIMAPOST
  1

  9
$DIMALT
 70
     0
  9
$DIMALTD
 70
     2
  9
$DIMALTF
 40
25.4
  9
$DIMLFAC
 40
1.0
  9
$DIMTOFL
 70
     0
  9
$DIMTVP
 40
0.0
  9
$DIMTIX
 70
     0
  9
$DIMSOXD
 70
     0
  9
$DIMSAH
 70
     0
  9
$DIMBLK1
  1

  9
$DIMBLK2
  1

  9
$DIMSTYLE
  2
Standard
  9
$DIMCLRD
 70
     0
  9
$DIMCLRE
 70
     0
  9
$DIMCLRT
 70
     0
  9
$DIMTFAC
 40
1.0
  9
$DIMGAP
 40
0.09
  9
$DIMJUST
 70
     0
  9
$DIMSD1
 70
     0
  9
$DIMSD2
 70
     0
  9
$DIMTOLJ
 70
     1
  9
$DIMTZIN
 70
     0
  9
$DIMALTZ
 70
     0
  9
$DIMALTTZ
 70
     0
  9
$DIMUPT
 70
     0
  9
$DIMDEC
 70
     4
  9
$DIMTDEC
 70
     4
  9
$DIMALTU
 70
     2
  9
$DIMALTTD
 70
     2
  9
$DIMTXSTY
  7
Standard
  9
$DIMAUNIT
 70
     0
  9
$DIMADEC
 70
     0
  9
$DIMALTRND
 40
0.0
  9
$DIMAZIN
 70
     0
  9
$DIMDSEP
 70
    46
  9
$DIMATFIT
 70
     3
  9
$DIMFRAC
 70
     0
  9
$DIMLDRBLK
  1

  9
$DIMLUNIT
 70
     2
  9
$DIMLWD
 70
    -2
  9
$DIMLWE
 70
    -2
  9
$DIMTMOVE
 70
     0
  9
$LUNITS
 70
     2
  9
$LUPREC
 70
     4
  9
$SKETCHINC
 40
0.1
  9
$FILLETRAD
 40
0.5
  9
$AUNITS
 70
     0
  9
$AUPREC
 70
     0
  9
$MENU
  1
.
  9
$ELEVATION
 40
0.0
  9
$PELEVATION
 40
0.0
  9
$THICKNESS
 40
0.0
  9
$LIMCHECK
 70
     0
  9
$CHAMFERA
 40
0.5
  9
$CHAMFERB
 40
0.5
  9
$CHAMFERC
 40
1.0
  9
$CHAMFERD
 40
0.0
  9
$SKPOLY
 70
     0
  9
$TDCREATE
 40
2453899.59099537
  9
$TDUCREATE
 40
2453899.215996632
  9
$TDUPDATE
 40
2453899.59099537
  9
$TDUUPDATE
 40
2453899.215996644
  9
$TDINDWG
 40
0.0000000116
  9
$TDUSRTIMER
 40
0.0000000116
  9
$USRTIMER
 70
     1
  9
$ANGBASE
 50
0.0
  9
$ANGDIR
 70
     0
  9
$PDMODE
 70
     0
  9
$PDSIZE
 40
0.0
  9
$PLINEWID
 40
0.0
  9
$SPLFRAME
 70
     0
  9
$SPLINETYPE
 70
     6
  9
$SPLINESEGS
 70
     8
  9
$HANDSEED
  5
2CC
  9
$SURFTAB1
 70
     6
  9
$SURFTAB2
 70
     6
  9
$SURFTYPE
 70
     6
  9
$SURFU
 70
     6
  9
$SURFV
 70
     6
  9
$UCSBASE
  2

  9
$UCSNAME
  2

  9
$UCSORG
 10
0.0
 20
0.0
 30
0.0
  9
$UCSXDIR
 10
1.0
 20
0.0
 30
0.0
  9
$UCSYDIR
 10
0.0
 20
1.0
 30
0.0
  9
$UCSORTHOREF
  2

  9
$UCSORTHOVIEW
 70
     0
  9
$UCSORGTOP
 10
0.0
 20
0.0
 30
0.0
  9
$UCSORGBOTTOM
 10
0.0
 20
0.0
 30
0.0
  9
$UCSORGLEFT
 10
0.0
 20
0.0
 30
0.0
  9
$UCSORGRIGHT
 10
0.0
 20
0.0
 30
0.0
  9
$UCSORGFRONT
 10
0.0
 20
0.0
 30
0.0
  9
$UCSORGBACK
 10
0.0
 20
0.0
 30
0.0
  9
$PUCSBASE
  2

  9
$PUCSNAME
  2

  9
$PUCSORG
 10
0.0
 20
0.0
 30
0.0
  9
$PUCSXDIR
 10
1.0
 20
0.0
 30
0.0
  9
$PUCSYDIR
 10
0.0
 20
1.0
 30
0.0
  9
$PUCSORTHOREF
  2

  9
$PUCSORTHOVIEW
 70
     0
  9
$PUCSORGTOP
 10
0.0
 20
0.0
 30
0.0
  9
$PUCSORGBOTTOM
 10
0.0
 20
0.0
 30
0.0
  9
$PUCSORGLEFT
 10
0.0
 20
0.0
 30
0.0
  9
$PUCSORGRIGHT
 10
0.0
 20
0.0
 30
0.0
  9
$PUCSORGFRONT
 10
0.0
 20
0.0
 30
0.0
  9
$PUCSORGBACK
 10
0.0
 20
0.0
 30
0.0
  9
$USERI1
 70
     0
  9
$USERI2
 70
     0
  9
$USERI3
 70
     0
  9
$USERI4
 70
     0
  9
$USERI5
 70
     0
  9
$USERR1
 40
0.0
  9
$USERR2
 40
0.0
  9
$USERR3
 40
0.0
  9
$USERR4
 40
0.0
  9
$USERR5
 40
0.0
  9
$WORLDVIEW
 70
     1
  9
$SHADEDGE
 70
     3
  9
$SHADEDIF
 70
    70
  9
$TILEMODE
 70
     1
  9
$MAXACTVP
 70
    64
  9
$PINSBASE
 10
0.0
 20
0.0
 30
0.0
  9
$PLIMCHECK
 70
     0
  9
$PEXTMIN
 10
0.0
 20
0.0
 30
0.0
  9
$PEXTMAX
 10
0.0
 20
0.0
 30
0.0
  9
$PLIMMIN
 10
0.0
 20
0.0
  9
$PLIMMAX
 10
0.0
 20
0.0
  9
$UNITMODE
 70
     0
  9
$VISRETAIN
 70
     1
  9
$PLINEGEN
 70
     0
  9
$PSLTSCALE
 70
     1
  9
$TREEDEPTH
 70
  3020
  9
$CMLSTYLE
  2
Standard
  9
$CMLJUST
 70
     0
  9
$CMLSCALE
 40
1.0
  9
$PROXYGRAPHICS
 70
     1
  9
$MEASUREMENT
 70
     0
  9
$CELWEIGHT
370
    -1
  9
$ENDCAPS
280
     0
  9
$JOINSTYLE
280
     0
  9
$LWDISPLAY
290
     0
  9
$INSUNITS
 70
     1
  9
$HYPERLINKBASE
  1

  9
$STYLESHEET
  1

  9
$XEDIT
290
     1
  9
$CEPSNTYPE
380
     0
  9
$PSTYLEMODE
290
     1
  9
$FINGERPRINTGUID
  2
{FAEB1C30-E019-11D5-929B-00C0DF256EC4}
  9
$VERSIONGUID
  2
{FAEB1C32-E019-11D5-929B-00C0DF256EC4}
  9
$EXTNAMES
290
     1
  9
$PSVPSCALE
 40
0.0
  9
$OLESTARTUP
290
     0
  0
ENDSEC
  0
SECTION
  2
CLASSES
  0
CLASS
  1
ACDBDICTIONARYWDFLT
  2
AcDbDictionaryWithDefault
  3
ObjectDBX Classes
 90
        0
280
     0
281
     0
  0
CLASS
  1
ACDBPLACEHOLDER
  2
AcDbPlaceHolder
  3
ObjectDBX Classes
 90
        0
280
     0
281
     0
  0
CLASS
  1
LAYOUT
  2
AcDbLayout
  3
ObjectDBX Classes
 90
        0
280
     0
281
     0
  0
ENDSEC
  0
SECTION
  2
TABLES
  0
TABLE
  2
VPORT
  5
8
330
0
100
AcDbSymbolTable
 70
     2
  0
VPORT
  5
29
330
8
100
AcDbSymbolTableRecord
100
AcDbViewportTableRecord
  2
*Active
 70
     0
 10
0.0
 20
0.0
 11
1.0
 21
1.0
 12
4950.0
 22
5250.0
 13
0.0
 23
0.0
 14
1.0
 24
1.0
 15
0.0
 25
0.0
 16
0.0
 26
0.0
 36
1.0
 17
0.0
 27
0.0
 37
0.0
 40
10500.0
 41
0.688564
 42
50.0
 43
0.0
 44
0.0
 50
0.0
 51
0.0
 71
     0
 72
   100
 73
     1
 74
     3
 75
     0
 76
     0
 77
     0
 78
     0
281
     0
 65
     0
110
0.0
120
0.0
130
0.0
111
1.0
121
0.0
131
0.0
112
0.0
122
1.0
132
0.0
 79
     0
146
0.0
  0
ENDTAB
  0
TABLE
  2
LTYPE
  5
5
330
0
100
AcDbSymbolTable
 70
     2
  0
LTYPE
  5
14
330
5
100
AcDbSymbolTableRecord
100
AcDbLinetypeTableRecord
  2
ByBlock
 70
     0
  3

 72
    65
 73
     0
 40
0.0
  0
LTYPE
  5
15
330
5
100
AcDbSymbolTableRecord
100
AcDbLinetypeTableRecord
  2
ByLayer
 70
     0
  3

 72
    65
 73
     0
 40
0.0
  0
LTYPE
  5
16
330
5
100
AcDbSymbolTableRecord
100
AcDbLinetypeTableRecord
  2
Continuous
 70
     0
  3
Solid line
 72
    65
 73
     0
 40
0.0
  0
LTYPE
  5
8D
330
5
100
AcDbSymbolTableRecord
100
AcDbLinetypeTableRecord
  2
CENTER2
 70
     0
  3
___ _ ___ _ ___ _ ___ _ ___ _ ___ _ _
 72
    65
 73
     4
 40
1.125
 49
0.75
 74
     0
 49
-0.125
 74
     0
 49
0.125
 74
     0
 49
-0.125
 74
     0
  0
ENDTAB
  0
TABLE
  2
LAYER
  5
2
330
0
100
AcDbSymbolTable
 70
     5
  0
LAYER
  5
10
330
2
100
AcDbSymbolTableRecord
100
AcDbLayerTableRecord
  2
0
 70
     0
 62
     7
  6
Continuous
370
    -3
390
F
  0
LAYER
  5
2E
330
2
100
AcDbSymbolTableRecord
100
AcDbLayerTableRecord
  2
空調文字
 70
     0
 62
     7
  6
Continuous
370
    -3
390
F
  0
LAYER
  5
31
330
2
100
AcDbSymbolTableRecord
100
AcDbLayerTableRecord
  2
罫線
 70
     0
 62
     7
  6
Continuous
370
    -3
390
F
  0
LAYER
  5
8A
330
2
100
AcDbSymbolTableRecord
100
AcDbLayerTableRecord
  2
スリーブ
 70
     0
 62
     7
  6
Continuous
370
    -3
390
F
  0
LAYER
  5
9D
330
2
100
AcDbSymbolTableRecord
100
AcDbLayerTableRecord
  2
R-PIPE-AIR
 70
     0
 62
     7
  6
Continuous
370
    -3
390
F
  0
ENDTAB
  0
TABLE
  2
STYLE
  5
3
330
0
100
AcDbSymbolTable
 70
     5
  0
STYLE
  5
11
330
3
100
AcDbSymbolTableRecord
100
AcDbTextStyleTableRecord
  2
Standard
 70
     0
 40
0.0
 41
1.0
 50
0.0
 71
     0
 42
0.2
  3
txt
  4
BIGFONT
  0
STYLE
  5
2A
330
3
100
AcDbSymbolTableRecord
100
AcDbTextStyleTableRecord
  2
MONOSTYLE-H
 70
     0
 40
0.0
 41
1.0
 50
0.0
 71
     0
 42
0.2
  3
monotxt
  4
BIGFONT
  0
STYLE
  5
2B
330
3
100
AcDbSymbolTableRecord
100
AcDbTextStyleTableRecord
  2
TATEGAKI
 70
     4
 40
0.0
 41
1.0
 50
0.0
 71
     0
 42
0.2
  3
txt
  4
BIGFONT
  0
STYLE
  5
2C
330
3
100
AcDbSymbolTableRecord
100
AcDbTextStyleTableRecord
  2
MONOSTYLE-V
 70
     4
 40
0.0
 41
1.0
 50
0.0
 71
     0
 42
0.2
  3
monotxt
  4
BIGFONT
  0
STYLE
  5
2D
330
3
100
AcDbSymbolTableRecord
100
AcDbTextStyleTableRecord
  2
STYLE1
 70
     0
 40
0.0
 41
1.0
 50
0.0
 71
     0
 42
0.2
  3
MSGOTHIC.TTC
  4

1001
ACAD
1000
MS Gothic
1071
    32817
  0
ENDTAB
  0
TABLE
  2
VIEW
  5
6
330
0
100
AcDbSymbolTable
 70
     0
  0
ENDTAB
  0
TABLE
  2
UCS
  5
7
330
0
100
AcDbSymbolTable
 70
     0
  0
ENDTAB
  0
TABLE
  2
APPID
  5
9
330
0
100
AcDbSymbolTable
 70
     1
  0
APPID
  5
12
330
9
100
AcDbSymbolTableRecord
100
AcDbRegAppTableRecord
  2
ACAD
 70
     0
  0
ENDTAB
  0
TABLE
  2
DIMSTYLE
  5
A
330
0
100
AcDbSymbolTable
 70
     1
100
AcDbDimStyleTable
  0
DIMSTYLE
105
27
330
A
100
AcDbSymbolTableRecord
100
AcDbDimStyleTableRecord
  2
Standard
 70
     0
340
11
  0
ENDTAB
  0
TABLE
  2
BLOCK_RECORD
  5
1
330
0
100
AcDbSymbolTable
 70
    79
  0
BLOCK_RECORD
  5
1F
330
1
100
AcDbSymbolTableRecord
100
AcDbBlockTableRecord
  2
*Model_Space
340
22
  0
BLOCK_RECORD
  5
1B
330
1
100
AcDbSymbolTableRecord
100
AcDbBlockTableRecord
  2
*Paper_Space
340
1E
  0
BLOCK_RECORD
  5
87
330
1
100
AcDbSymbolTableRecord
100
AcDbBlockTableRecord
  2
SGP_0_055059046156102247140068
340
0
102
{BLKREFS
331
8B
102
}
  0
BLOCK_RECORD
  5
90
330
1
100
AcDbSymbolTableRecord
100
AcDbBlockTableRecord
  2
SGP_1_055059046157102247140068
340
0
102
{BLKREFS
331
93
102
}
  0
BLOCK_RECORD
  5
9A
330
1
100
AcDbSymbolTableRecord
100
AcDbBlockTableRecord
  2
INS2_055059046158102247140068
340
0
102
{BLKREFS
331
9E
102
}
  0
BLOCK_RECORD
  5
A1
330
1
100
AcDbSymbolTableRecord
100
AcDbBlockTableRecord
  2
INS3_055059046159102247140068
340
0
102
{BLKREFS
331
A4
102
}
  0
BLOCK_RECORD
  5
A7
330
1
100
AcDbSymbolTableRecord
100
AcDbBlockTableRecord
  2
INS4_055059046160102247140068
340
0
102
{BLKREFS
331
AA
102
}
  0
BLOCK_RECORD
  5
AD
330
1
100
AcDbSymbolTableRecord
100
AcDbBlockTableRecord
  2
SGP_5_055059046161102247140068
340
0
102
{BLKREFS
331
B0
102
}
  0
BLOCK_RECORD
  5
B6
330
1
100
AcDbSymbolTableRecord
100
AcDbBlockTableRecord
  2
SGP_6_071059046171102247140068
340
0
102
{BLKREFS
331
B9
102
}
  0
BLOCK_RECORD
  5
BD
330
1
100
AcDbSymbolTableRecord
100
AcDbBlockTableRecord
  2
INS7_071059046172102247140068
340
0
102
{BLKREFS
331
C0
102
}
  0
BLOCK_RECORD
  5
C3
330
1
100
AcDbSymbolTableRecord
100
AcDbBlockTableRecord
  2
SGP_8_071059046173102247140068
340
0
102
{BLKREFS
331
C6
102
}
  0
BLOCK_RECORD
  5
CA
330
1
100
AcDbSymbolTableRecord
100
AcDbBlockTableRecord
  2
INS9_071059046174102247140068
340
0
102
{BLKREFS
331
CD
102
}
  0
BLOCK_RECORD
  5
D0
330
1
100
AcDbSymbolTableRecord
100
AcDbBlockTableRecord
  2
INS10_071059046175102247140068
340
0
102
{BLKREFS
331
D3
102
}
  0
BLOCK_RECORD
  5
D6
330
1
100
AcDbSymbolTableRecord
100
AcDbBlockTableRecord
  2
SGP_11_071059046176102247140068
340
0
102
{BLKREFS
331
D9
102
}
  0
BLOCK_RECORD
  5
DD
330
1
100
AcDbSymbolTableRecord
100
AcDbBlockTableRecord
  2
INS12_071059046177102247140068
340
0
102
{BLKREFS
331
E0
102
}
  0
BLOCK_RECORD
  5
E3
330
1
100
AcDbSymbolTableRecord
100
AcDbBlockTableRecord
  2
INS13_071059046178102247140068
340
0
102
{BLKREFS
331
E6
102
}
  0
BLOCK_RECORD
  5
F1
330
1
100
AcDbSymbolTableRecord
100
AcDbBlockTableRecord
  2
SGP_14_087059046187102247140068
340
0
102
{BLKREFS
331
F4
102
}
  0
BLOCK_RECORD
  5
F8
330
1
100
AcDbSymbolTableRecord
100
AcDbBlockTableRecord
  2
INS15_087059046188102247140068
340
0
102
{BLKREFS
331
FB
102
}
  0
BLOCK_RECORD
  5
FE
330
1
100
AcDbSymbolTableRecord
100
AcDbBlockTableRecord
  2
INS16_087059046189102247140068
340
0
102
{BLKREFS
331
101
102
}
  0
BLOCK_RECORD
  5
105
330
1
100
AcDbSymbolTableRecord
100
AcDbBlockTableRecord
  2
INS17_087059046190102247140068
340
0
102
{BLKREFS
331
108
102
}
  0
BLOCK_RECORD
  5
10B
330
1
100
AcDbSymbolTableRecord
100
AcDbBlockTableRecord
  2
INS18_087059046191102247140068
340
0
102
{BLKREFS
331
10E
102
}
  0
BLOCK_RECORD
  5
114
330
1
100
AcDbSymbolTableRecord
100
AcDbBlockTableRecord
  2
INS19_087059046192102247140068
340
0
102
{BLKREFS
331
117
102
}
  0
BLOCK_RECORD
  5
11B
330
1
100
AcDbSymbolTableRecord
100
AcDbBlockTableRecord
  2
INS20_087059046193102247140068
340
0
102
{BLKREFS
331
11E
102
}
  0
BLOCK_RECORD
  5
125
330
1
100
AcDbSymbolTableRecord
100
AcDbBlockTableRecord
  2
INS21_102059046203102247140068
340
0
102
{BLKREFS
331
128
102
}
  0
BLOCK_RECORD
  5
130
330
1
100
AcDbSymbolTableRecord
100
AcDbBlockTableRecord
  2
SGP_22_118059046218102247140068
340
0
102
{BLKREFS
331
133
102
}
  0
BLOCK_RECORD
  5
137
330
1
100
AcDbSymbolTableRecord
100
AcDbBlockTableRecord
  2
INS23_118059046219102247140068
340
0
102
{BLKREFS
331
13A
102
}
  0
BLOCK_RECORD
  5
13E
330
1
100
AcDbSymbolTableRecord
100
AcDbBlockTableRecord
  2
SGP_24_118059046220102247140068
340
0
102
{BLKREFS
331
141
102
}
  0
BLOCK_RECORD
  5
145
330
1
100
AcDbSymbolTableRecord
100
AcDbBlockTableRecord
  2
INS25_118059046221102247140068
340
0
102
{BLKREFS
331
148
102
}
  0
BLOCK_RECORD
  5
14B
330
1
100
AcDbSymbolTableRecord
100
AcDbBlockTableRecord
  2
INS26_118059046222102247140068
340
0
102
{BLKREFS
331
14E
102
}
  0
BLOCK_RECORD
  5
155
330
1
100
AcDbSymbolTableRecord
100
AcDbBlockTableRecord
  2
SGP_27_133059046234102247140068
340
0
102
{BLKREFS
331
158
102
}
  0
BLOCK_RECORD
  5
15C
330
1
100
AcDbSymbolTableRecord
100
AcDbBlockTableRecord
  2
SGP_28_133059046235102247140068
340
0
102
{BLKREFS
331
15F
102
}
  0
BLOCK_RECORD
  5
163
330
1
100
AcDbSymbolTableRecord
100
AcDbBlockTableRecord
  2
SGP_29_133059046236102247140068
340
0
102
{BLKREFS
331
166
102
}
  0
BLOCK_RECORD
  5
16A
330
1
100
AcDbSymbolTableRecord
100
AcDbBlockTableRecord
  2
SGP_30_133059046237102247140068
340
0
102
{BLKREFS
331
16D
102
}
  0
BLOCK_RECORD
  5
171
330
1
100
AcDbSymbolTableRecord
100
AcDbBlockTableRecord
  2
INS31_133059046238102247140068
340
0
102
{BLKREFS
331
174
102
}
  0
BLOCK_RECORD
  5
177
330
1
100
AcDbSymbolTableRecord
100
AcDbBlockTableRecord
  2
INS32_133059046239102247140068
340
0
102
{BLKREFS
331
17A
102
}
  0
BLOCK_RECORD
  5
17D
330
1
100
AcDbSymbolTableRecord
100
AcDbBlockTableRecord
  2
INS33_133059046240102247140068
340
0
102
{BLKREFS
331
180
102
}
  0
BLOCK_RECORD
  5
183
330
1
100
AcDbSymbolTableRecord
100
AcDbBlockTableRecord
  2
INS34_133059046241102247140068
340
0
102
{BLKREFS
331
186
102
}
  0
BLOCK_RECORD
  5
189
330
1
100
AcDbSymbolTableRecord
100
AcDbBlockTableRecord
  2
INS35_133059046242102247140068
340
0
102
{BLKREFS
331
18C
102
}
  0
BLOCK_RECORD
  5
18F
330
1
100
AcDbSymbolTableRecord
100
AcDbBlockTableRecord
  2
INS36_133059046243102247140068
340
0
102
{BLKREFS
331
192
102
}
  0
BLOCK_RECORD
  5
195
330
1
100
AcDbSymbolTableRecord
100
AcDbBlockTableRecord
  2
INS37_133059046244102247140068
340
0
102
{BLKREFS
331
198
102
}
  0
BLOCK_RECORD
  5
19B
330
1
100
AcDbSymbolTableRecord
100
AcDbBlockTableRecord
  2
INS38_149059046245102247140068
340
0
102
{BLKREFS
331
19E
102
}
  0
BLOCK_RECORD
  5
1B5
330
1
100
AcDbSymbolTableRecord
100
AcDbBlockTableRecord
  2
SGP_39_165059046009102247140068
340
0
102
{BLKREFS
331
1B8
102
}
  0
BLOCK_RECORD
  5
1BC
330
1
100
AcDbSymbolTableRecord
100
AcDbBlockTableRecord
  2
SGP_40_165059046010102247140068
340
0
102
{BLKREFS
331
1BF
102
}
  0
BLOCK_RECORD
  5
1C3
330
1
100
AcDbSymbolTableRecord
100
AcDbBlockTableRecord
  2
SGP_41_165059046011102247140068
340
0
102
{BLKREFS
331
1C6
102
}
  0
BLOCK_RECORD
  5
1CA
330
1
100
AcDbSymbolTableRecord
100
AcDbBlockTableRecord
  2
SGP_42_165059046012102247140068
340
0
102
{BLKREFS
331
1CD
102
}
  0
BLOCK_RECORD
  5
1D1
330
1
100
AcDbSymbolTableRecord
100
AcDbBlockTableRecord
  2
SGP_43_165059046013102247140068
340
0
102
{BLKREFS
331
1D4
102
}
  0
BLOCK_RECORD
  5
1D8
330
1
100
AcDbSymbolTableRecord
100
AcDbBlockTableRecord
  2
SGP_44_180059046025102247140068
340
0
102
{BLKREFS
331
1DB
102
}
  0
BLOCK_RECORD
  5
1DF
330
1
100
AcDbSymbolTableRecord
100
AcDbBlockTableRecord
  2
SGP_45_180059046026102247140068
340
0
102
{BLKREFS
331
1E2
102
}
  0
BLOCK_RECORD
  5
1E6
330
1
100
AcDbSymbolTableRecord
100
AcDbBlockTableRecord
  2
INS46_180059046027102247140068
340
0
102
{BLKREFS
331
1E9
102
}
  0
BLOCK_RECORD
  5
1EC
330
1
100
AcDbSymbolTableRecord
100
AcDbBlockTableRecord
  2
INS47_180059046028102247140068
340
0
102
{BLKREFS
331
1EF
102
}
  0
BLOCK_RECORD
  5
1F2
330
1
100
AcDbSymbolTableRecord
100
AcDbBlockTableRecord
  2
INS48_180059046029102247140068
340
0
102
{BLKREFS
331
1F5
102
}
  0
BLOCK_RECORD
  5
1F8
330
1
100
AcDbSymbolTableRecord
100
AcDbBlockTableRecord
  2
INS49_180059046030102247140068
340
0
102
{BLKREFS
331
1FB
102
}
  0
BLOCK_RECORD
  5
1FE
330
1
100
AcDbSymbolTableRecord
100
AcDbBlockTableRecord
  2
INS50_180059046031102247140068
340
0
102
{BLKREFS
331
201
102
}
  0
BLOCK_RECORD
  5
204
330
1
100
AcDbSymbolTableRecord
100
AcDbBlockTableRecord
  2
INS51_180059046032102247140068
340
0
102
{BLKREFS
331
207
102
}
  0
BLOCK_RECORD
  5
20A
330
1
100
AcDbSymbolTableRecord
100
AcDbBlockTableRecord
  2
INS52_180059046033102247140068
340
0
102
{BLKREFS
331
20D
102
}
  0
BLOCK_RECORD
  5
210
330
1
100
AcDbSymbolTableRecord
100
AcDbBlockTableRecord
  2
INS53_180059046034102247140068
340
0
102
{BLKREFS
331
213
102
}
  0
BLOCK_RECORD
  5
216
330
1
100
AcDbSymbolTableRecord
100
AcDbBlockTableRecord
  2
INS54_180059046035102247140068
340
0
102
{BLKREFS
331
219
102
}
  0
BLOCK_RECORD
  5
21C
330
1
100
AcDbSymbolTableRecord
100
AcDbBlockTableRecord
  2
INS55_180059046036102247140068
340
0
102
{BLKREFS
331
21F
102
}
  0
BLOCK_RECORD
  5
222
330
1
100
AcDbSymbolTableRecord
100
AcDbBlockTableRecord
  2
INS56_180059046037102247140068
340
0
102
{BLKREFS
331
225
102
}
  0
BLOCK_RECORD
  5
228
330
1
100
AcDbSymbolTableRecord
100
AcDbBlockTableRecord
  2
INS57_180059046038102247140068
340
0
102
{BLKREFS
331
22B
102
}
  0
BLOCK_RECORD
  5
22E
330
1
100
AcDbSymbolTableRecord
100
AcDbBlockTableRecord
  2
INS58_180059046039102247140068
340
0
102
{BLKREFS
331
231
102
}
  0
BLOCK_RECORD
  5
234
330
1
100
AcDbSymbolTableRecord
100
AcDbBlockTableRecord
  2
INS59_196059046040102247140068
340
0
102
{BLKREFS
331
237
102
}
  0
BLOCK_RECORD
  5
25A
330
1
100
AcDbSymbolTableRecord
100
AcDbBlockTableRecord
  2
SGP_60_212059046056102247140068
340
0
102
{BLKREFS
331
25D
102
}
  0
BLOCK_RECORD
  5
261
330
1
100
AcDbSymbolTableRecord
100
AcDbBlockTableRecord
  2
SGP_61_212059046057102247140068
340
0
102
{BLKREFS
331
264
102
}
  0
BLOCK_RECORD
  5
268
330
1
100
AcDbSymbolTableRecord
100
AcDbBlockTableRecord
  2
SGP_62_212059046058102247140068
340
0
102
{BLKREFS
331
26B
102
}
  0
BLOCK_RECORD
  5
26F
330
1
100
AcDbSymbolTableRecord
100
AcDbBlockTableRecord
  2
SGP_63_227059046072102247140068
340
0
102
{BLKREFS
331
272
102
}
  0
BLOCK_RECORD
  5
276
330
1
100
AcDbSymbolTableRecord
100
AcDbBlockTableRecord
  2
SGP_64_227059046073102247140068
340
0
102
{BLKREFS
331
279
102
}
  0
BLOCK_RECORD
  5
27D
330
1
100
AcDbSymbolTableRecord
100
AcDbBlockTableRecord
  2
SGP_65_227059046074102247140068
340
0
102
{BLKREFS
331
280
102
}
  0
BLOCK_RECORD
  5
284
330
1
100
AcDbSymbolTableRecord
100
AcDbBlockTableRecord
  2
INS66_227059046075102247140068
340
0
102
{BLKREFS
331
287
102
}
  0
BLOCK_RECORD
  5
28A
330
1
100
AcDbSymbolTableRecord
100
AcDbBlockTableRecord
  2
INS67_227059046076102247140068
340
0
102
{BLKREFS
331
28D
102
}
  0
BLOCK_RECORD
  5
290
330
1
100
AcDbSymbolTableRecord
100
AcDbBlockTableRecord
  2
INS68_227059046077102247140068
340
0
102
{BLKREFS
331
293
102
}
  0
BLOCK_RECORD
  5
296
330
1
100
AcDbSymbolTableRecord
100
AcDbBlockTableRecord
  2
INS69_227059046078102247140068
340
0
102
{BLKREFS
331
299
102
}
  0
BLOCK_RECORD
  5
29C
330
1
100
AcDbSymbolTableRecord
100
AcDbBlockTableRecord
  2
INS70_227059046079102247140068
340
0
102
{BLKREFS
331
29F
102
}
  0
BLOCK_RECORD
  5
2A2
330
1
100
AcDbSymbolTableRecord
100
AcDbBlockTableRecord
  2
INS71_227059046080102247140068
340
0
102
{BLKREFS
331
2A5
102
}
  0
BLOCK_RECORD
  5
2A8
330
1
100
AcDbSymbolTableRecord
100
AcDbBlockTableRecord
  2
INS72_227059046081102247140068
340
0
102
{BLKREFS
331
2AB
102
}
  0
BLOCK_RECORD
  5
2AE
330
1
100
AcDbSymbolTableRecord
100
AcDbBlockTableRecord
  2
INS73_227059046082102247140068
340
0
102
{BLKREFS
331
2B1
102
}
  0
BLOCK_RECORD
  5
2B4
330
1
100
AcDbSymbolTableRecord
100
AcDbBlockTableRecord
  2
INS74_227059046083102247140068
340
0
102
{BLKREFS
331
2B7
102
}
  0
BLOCK_RECORD
  5
2BA
330
1
100
AcDbSymbolTableRecord
100
AcDbBlockTableRecord
  2
INS75_227059046084102247140068
340
0
102
{BLKREFS
331
2BD
102
}
  0
BLOCK_RECORD
  5
2C0
330
1
100
AcDbSymbolTableRecord
100
AcDbBlockTableRecord
  2
INS76_227059046085102247140068
340
0
102
{BLKREFS
331
2C3
102
}
  0
BLOCK_RECORD
  5
2C6
330
1
100
AcDbSymbolTableRecord
100
AcDbBlockTableRecord
  2
INS77_227059046086102247140068
340
0
102
{BLKREFS
331
2C9
102
}
  0
ENDTAB
  0
ENDSEC
  0
SECTION
  2
BLOCKS
  0
BLOCK
  5
20
330
1F
100
AcDbEntity
  8
0
100
AcDbBlockBegin
  2
*Model_Space
 70
     0
 71
     0
 10
0.0
 20
0.0
 30
0.0
  3
*Model_Space
  1

  0
ENDBLK
  5
21
330
1F
100
AcDbEntity
  8
0
100
AcDbBlockEnd
  0
BLOCK
  5
1C
330
1B
100
AcDbEntity
 67
     1
  8
0
100
AcDbBlockBegin
  2
*Paper_Space
 70
     0
 71
     0
 10
0.0
 20
0.0
 30
0.0
  3
*Paper_Space
  1

  0
ENDBLK
  5
1D
330
1B
100
AcDbEntity
 67
     1
  8
0
100
AcDbBlockEnd
  0
BLOCK
  5
88
330
87
100
AcDbEntity
  8
0
100
AcDbBlockBegin
  2
SGP_0_055059046156102247140068
 70
     0
 71
     0
 10
0.0
 20
0.0
 30
0.0
  3
SGP_0_055059046156102247140068
  1

  0
CIRCLE
  5
8C
330
87
100
AcDbEntity
  8
スリーブ
  6
Continuous
 62
    60
370
     9
100
AcDbCircle
 10
0.0
 20
0.0
 30
0.0
 40
57.15000000000001
  0
LINE
  5
8E
330
87
100
AcDbEntity
  8
スリーブ
  6
CENTER2
 62
     8
370
     9
100
AcDbLine
 10
0.0
 20
117.1500000000015
 30
0.0
 11
0.0
 21
-117.1500000000015
 31
0.0
  0
LINE
  5
8F
330
87
100
AcDbEntity
  8
スリーブ
  6
CENTER2
 62
     8
370
     9
100
AcDbLine
 10
-117.1499999999942
 20
0.0
 30
0.0
 11
117.1500000000015
 21
0.0
 31
0.0
  0
ENDBLK
  5
89
330
87
100
AcDbEntity
  8
0
100
AcDbBlockEnd
  0
BLOCK
  5
91
330
90
100
AcDbEntity
  8
0
100
AcDbBlockBegin
  2
SGP_1_055059046157102247140068
 70
     0
 71
     0
 10
0.0
 20
0.0
 30
0.0
  3
SGP_1_055059046157102247140068
  1

  0
CIRCLE
  5
94
330
90
100
AcDbEntity
  8
スリーブ
  6
Continuous
 62
    60
370
     9
100
AcDbCircle
 10
0.0
 20
0.0
 30
0.0
 40
69.90000000000001
  0
LINE
  5
95
330
90
100
AcDbEntity
  8
スリーブ
  6
CENTER2
 62
     8
370
     9
100
AcDbLine
 10
-129.9000023841873
 20
0.0
 30
0.0
 11
129.9000023841873
 21
0.0
 31
0.0
  0
LINE
  5
96
330
90
100
AcDbEntity
  8
スリーブ
  6
CENTER2
 62
     8
370
     9
100
AcDbLine
 10
0.0
 20
129.9000023841873
 30
0.0
 11
0.0
 21
-129.9000023841873
 31
0.0
  0
ENDBLK
  5
92
330
90
100
AcDbEntity
  8
0
100
AcDbBlockEnd
  0
BLOCK
  5
9B
330
9A
100
AcDbEntity
  8
0
100
AcDbBlockBegin
  2
INS2_055059046158102247140068
 70
     0
 71
     0
 10
0.0
 20
0.0
 30
0.0
  3
INS2_055059046158102247140068
  1

  0
CIRCLE
  5
9F
330
9A
100
AcDbEntity
  8
R-PIPE-AIR
  6
Continuous
 62
    60
370
     0
100
AcDbCircle
 10
-0.0004999998855055
 20
-0.0004999969969504
 30
0.0
 40
11.11000000000058
  0
CIRCLE
  5
A0
330
9A
100
AcDbEntity
  8
R-PIPE-AIR
  6
Continuous
 62
    60
370
     0
100
AcDbCircle
 10
-0.0004999998855055
 20
-0.0004999969969504
 30
0.0
 40
31.11000000000058
  0
ENDBLK
  5
9C
330
9A
100
AcDbEntity
  8
0
100
AcDbBlockEnd
  0
BLOCK
  5
A2
330
A1
100
AcDbEntity
  8
0
100
AcDbBlockBegin
  2
INS3_055059046159102247140068
 70
     0
 71
     0
 10
0.0
 20
0.0
 30
0.0
  3
INS3_055059046159102247140068
  1

  0
CIRCLE
  5
A5
330
A1
100
AcDbEntity
  8
R-PIPE-AIR
  6
Continuous
 62
    60
370
     0
100
AcDbCircle
 10
-0.0004999998855055
 20
-0.0005000000383006
 30
0.0
 40
9.525
  0
CIRCLE
  5
A6
330
A1
100
AcDbEntity
  8
R-PIPE-AIR
  6
Continuous
 62
    60
370
     0
100
AcDbCircle
 10
-0.0004999998855055
 20
-0.0005000000383006
 30
0.0
 40
29.52500000000146
  0
ENDBLK
  5
A3
330
A1
100
AcDbEntity
  8
0
100
AcDbBlockEnd
  0
BLOCK
  5
A8
330
A7
100
AcDbEntity
  8
0
100
AcDbBlockBegin
  2
INS4_055059046160102247140068
 70
     0
 71
     0
 10
0.0
 20
0.0
 30
0.0
  3
INS4_055059046160102247140068
  1

  0
CIRCLE
  5
AB
330
A7
100
AcDbEntity
  8
R-PIPE-AIR
  6
Continuous
 62
    60
370
     0
100
AcDbCircle
 10
-0.0004999998855055
 20
-0.0005000000383006
 30
0.0
 40
4.759999999998399
  0
CIRCLE
  5
AC
330
A7
100
AcDbEntity
  8
R-PIPE-AIR
  6
Continuous
 62
    60
370
     0
100
AcDbCircle
 10
-0.0004999998855055
 20
-0.0005000000383006
 30
0.0
 40
24.7599999999984
  0
ENDBLK
  5
A9
330
A7
100
AcDbEntity
  8
0
100
AcDbBlockEnd
  0
BLOCK
  5
AE
330
AD
100
AcDbEntity
  8
0
100
AcDbBlockBegin
  2
SGP_5_055059046161102247140068
 70
     0
 71
     0
 10
0.0
 20
0.0
 30
0.0
  3
SGP_5_055059046161102247140068
  1

  0
CIRCLE
  5
B1
330
AD
100
AcDbEntity
  8
スリーブ
  6
Continuous
 62
    60
370
     9
100
AcDbCircle
 10
0.0
 20
0.0
 30
0.0
 40
57.15000000000001
  0
LINE
  5
B2
330
AD
100
AcDbEntity
  8
スリーブ
  6
CENTER2
 62
     8
370
     9
100
AcDbLine
 10
0.0
 20
117.1500000000015
 30
0.0
 11
0.0
 21
-117.1500000000015
 31
0.0
  0
LINE
  5
B3
330
AD
100
AcDbEntity
  8
スリーブ
  6
CENTER2
 62
     8
370
     9
100
AcDbLine
 10
-117.1499999999942
 20
0.0
 30
0.0
 11
117.1500000000015
 21
0.0
 31
0.0
  0
ENDBLK
  5
AF
330
AD
100
AcDbEntity
  8
0
100
AcDbBlockEnd
  0
BLOCK
  5
B7
330
B6
100
AcDbEntity
  8
0
100
AcDbBlockBegin
  2
SGP_6_071059046171102247140068
 70
     0
 71
     0
 10
0.0
 20
0.0
 30
0.0
  3
SGP_6_071059046171102247140068
  1

  0
CIRCLE
  5
BA
330
B6
100
AcDbEntity
  8
スリーブ
  6
Continuous
 62
    60
370
     9
100
AcDbCircle
 10
0.0
 20
0.0
 30
0.0
 40
57.15000000000001
  0
LINE
  5
BB
330
B6
100
AcDbEntity
  8
スリーブ
  6
CENTER2
 62
     8
370
     9
100
AcDbLine
 10
0.0
 20
117.1500000000015
 30
0.0
 11
0.0
 21
-117.1500000000015
 31
0.0
  0
LINE
  5
BC
330
B6
100
AcDbEntity
  8
スリーブ
  6
CENTER2
 62
     8
370
     9
100
AcDbLine
 10
-117.1499999999942
 20
0.0
 30
0.0
 11
117.1500000000015
 21
0.0
 31
0.0
  0
ENDBLK
  5
B8
330
B6
100
AcDbEntity
  8
0
100
AcDbBlockEnd
  0
BLOCK
  5
BE
330
BD
100
AcDbEntity
  8
0
100
AcDbBlockBegin
  2
INS7_071059046172102247140068
 70
     0
 71
     0
 10
0.0
 20
0.0
 30
0.0
  3
INS7_071059046172102247140068
  1

  0
CIRCLE
  5
C1
330
BD
100
AcDbEntity
  8
R-PIPE-AIR
  6
Continuous
 62
    60
370
     0
100
AcDbCircle
 10
-0.0004999998855055
 20
-0.0005000000383006
 30
0.0
 40
13.17500000000291
  0
CIRCLE
  5
C2
330
BD
100
AcDbEntity
  8
R-PIPE-AIR
  6
Continuous
 62
    60
370
     0
100
AcDbCircle
 10
-0.0004999998855055
 20
-0.0005000000383006
 30
0.0
 40
3.175
  0
ENDBLK
  5
BF
330
BD
100
AcDbEntity
  8
0
100
AcDbBlockEnd
  0
BLOCK
  5
C4
330
C3
100
AcDbEntity
  8
0
100
AcDbBlockBegin
  2
SGP_8_071059046173102247140068
 70
     0
 71
     0
 10
0.0
 20
0.0
 30
0.0
  3
SGP_8_071059046173102247140068
  1

  0
CIRCLE
  5
C7
330
C3
100
AcDbEntity
  8
スリーブ
  6
Continuous
 62
    60
370
     9
100
AcDbCircle
 10
0.0
 20
0.0
 30
0.0
 40
57.15000000000001
  0
LINE
  5
C8
330
C3
100
AcDbEntity
  8
スリーブ
  6
CENTER2
 62
     8
370
     9
100
AcDbLine
 10
0.0
 20
117.1500000000015
 30
0.0
 11
0.0
 21
-117.1500000000015
 31
0.0
  0
LINE
  5
C9
330
C3
100
AcDbEntity
  8
スリーブ
  6
CENTER2
 62
     8
370
     9
100
AcDbLine
 10
-117.1499999999942
 20
0.0
 30
0.0
 11
117.1500000000015
 21
0.0
 31
0.0
  0
ENDBLK
  5
C5
330
C3
100
AcDbEntity
  8
0
100
AcDbBlockEnd
  0
BLOCK
  5
CB
330
CA
100
AcDbEntity
  8
0
100
AcDbBlockBegin
  2
INS9_071059046174102247140068
 70
     0
 71
     0
 10
0.0
 20
0.0
 30
0.0
  3
INS9_071059046174102247140068
  1

  0
CIRCLE
  5
CE
330
CA
100
AcDbEntity
  8
R-PIPE-AIR
  6
Continuous
 62
    60
370
     0
100
AcDbCircle
 10
-0.0004999998855055
 20
0.0004999996235711
 30
0.0
 40
13.17500000000291
  0
CIRCLE
  5
CF
330
CA
100
AcDbEntity
  8
R-PIPE-AIR
  6
Continuous
 62
    60
370
     0
100
AcDbCircle
 10
-0.0004999998855055
 20
0.0004999996235711
 30
0.0
 40
3.175
  0
ENDBLK
  5
CC
330
CA
100
AcDbEntity
  8
0
100
AcDbBlockEnd
  0
BLOCK
  5
D1
330
D0
100
AcDbEntity
  8
0
100
AcDbBlockBegin
  2
INS10_071059046175102247140068
 70
     0
 71
     0
 10
0.0
 20
0.0
 30
0.0
  3
INS10_071059046175102247140068
  1

  0
CIRCLE
  5
D4
330
D0
100
AcDbEntity
  8
R-PIPE-AIR
  6
Continuous
 62
    60
370
     0
100
AcDbCircle
 10
-0.0004999998855055
 20
0.0004999996235711
 30
0.0
 40
6.349999999998545
  0
CIRCLE
  5
D5
330
D0
100
AcDbEntity
  8
R-PIPE-AIR
  6
Continuous
 62
    60
370
     0
100
AcDbCircle
 10
-0.0004999998855055
 20
0.0004999996235711
 30
0.0
 40
26.34999999999855
  0
ENDBLK
  5
D2
330
D0
100
AcDbEntity
  8
0
100
AcDbBlockEnd
  0
BLOCK
  5
D7
330
D6
100
AcDbEntity
  8
0
100
AcDbBlockBegin
  2
SGP_11_071059046176102247140068
 70
     0
 71
     0
 10
0.0
 20
0.0
 30
0.0
  3
SGP_11_071059046176102247140068
  1

  0
CIRCLE
  5
DA
330
D6
100
AcDbEntity
  8
スリーブ
  6
Continuous
 62
    60
370
     9
100
AcDbCircle
 10
0.0
 20
0.0
 30
0.0
 40
57.15000000000001
  0
LINE
  5
DB
330
D6
100
AcDbEntity
  8
スリーブ
  6
CENTER2
 62
     8
370
     9
100
AcDbLine
 10
0.0
 20
117.1500000000015
 30
0.0
 11
0.0
 21
-117.1500000000015
 31
0.0
  0
LINE
  5
DC
330
D6
100
AcDbEntity
  8
スリーブ
  6
CENTER2
 62
     8
370
     9
100
AcDbLine
 10
-117.1499999999942
 20
0.0
 30
0.0
 11
117.1500000000015
 21
0.0
 31
0.0
  0
ENDBLK
  5
D8
330
D6
100
AcDbEntity
  8
0
100
AcDbBlockEnd
  0
BLOCK
  5
DE
330
DD
100
AcDbEntity
  8
0
100
AcDbBlockBegin
  2
INS12_071059046177102247140068
 70
     0
 71
     0
 10
0.0
 20
0.0
 30
0.0
  3
INS12_071059046177102247140068
  1

  0
CIRCLE
  5
E1
330
DD
100
AcDbEntity
  8
R-PIPE-AIR
  6
Continuous
 62
    60
370
     0
100
AcDbCircle
 10
-0.0004999998855055
 20
0.0004999996235711
 30
0.0
 40
6.349999999998545
  0
CIRCLE
  5
E2
330
DD
100
AcDbEntity
  8
R-PIPE-AIR
  6
Continuous
 62
    60
370
     0
100
AcDbCircle
 10
-0.0004999998855055
 20
0.0004999996235711
 30
0.0
 40
26.34999999999855
  0
ENDBLK
  5
DF
330
DD
100
AcDbEntity
  8
0
100
AcDbBlockEnd
  0
BLOCK
  5
E4
330
E3
100
AcDbEntity
  8
0
100
AcDbBlockBegin
  2
INS13_071059046178102247140068
 70
     0
 71
     0
 10
0.0
 20
0.0
 30
0.0
  3
INS13_071059046178102247140068
  1

  0
CIRCLE
  5
E7
330
E3
100
AcDbEntity
  8
R-PIPE-AIR
  6
Continuous
 62
    60
370
     0
100
AcDbCircle
 10
-0.0004999998927815
 20
0.000499999630847
 30
0.0
 40
4.759999999998399
  0
CIRCLE
  5
E8
330
E3
100
AcDbEntity
  8
R-PIPE-AIR
  6
Continuous
 62
    60
370
     0
100
AcDbCircle
 10
-0.0004999998927815
 20
0.000499999630847
 30
0.0
 40
14.75999999999476
  0
ENDBLK
  5
E5
330
E3
100
AcDbEntity
  8
0
100
AcDbBlockEnd
  0
BLOCK
  5
F2
330
F1
100
AcDbEntity
  8
0
100
AcDbBlockBegin
  2
SGP_14_087059046187102247140068
 70
     0
 71
     0
 10
0.0
 20
0.0
 30
0.0
  3
SGP_14_087059046187102247140068
  1

  0
CIRCLE
  5
F5
330
F1
100
AcDbEntity
  8
スリーブ
  6
Continuous
 62
    60
370
     9
100
AcDbCircle
 10
0.0
 20
0.0
 30
0.0
 40
57.15000000000001
  0
LINE
  5
F6
330
F1
100
AcDbEntity
  8
スリーブ
  6
CENTER2
 62
     8
370
     9
100
AcDbLine
 10
0.0
 20
117.1500000000015
 30
0.0
 11
0.0
 21
-117.1500000000015
 31
0.0
  0
LINE
  5
F7
330
F1
100
AcDbEntity
  8
スリーブ
  6
CENTER2
 62
     8
370
     9
100
AcDbLine
 10
-117.1499999999942
 20
0.0
 30
0.0
 11
117.1500000000015
 21
0.0
 31
0.0
  0
ENDBLK
  5
F3
330
F1
100
AcDbEntity
  8
0
100
AcDbBlockEnd
  0
BLOCK
  5
F9
330
F8
100
AcDbEntity
  8
0
100
AcDbBlockBegin
  2
INS15_087059046188102247140068
 70
     0
 71
     0
 10
0.0
 20
0.0
 30
0.0
  3
INS15_087059046188102247140068
  1

  0
CIRCLE
  5
FC
330
F8
100
AcDbEntity
  8
R-PIPE-AIR
  6
Continuous
 62
    60
370
     0
100
AcDbCircle
 10
-0.0004999998782296
 20
0.0004999996235711
 30
0.0
 40
13.17500000000291
  0
CIRCLE
  5
FD
330
F8
100
AcDbEntity
  8
R-PIPE-AIR
  6
Continuous
 62
    60
370
     0
100
AcDbCircle
 10
-0.0004999998782296
 20
0.0004999996235711
 30
0.0
 40
3.175
  0
ENDBLK
  5
FA
330
F8
100
AcDbEntity
  8
0
100
AcDbBlockEnd
  0
BLOCK
  5
FF
330
FE
100
AcDbEntity
  8
0
100
AcDbBlockBegin
  2
INS16_087059046189102247140068
 70
     0
 71
     0
 10
0.0
 20
0.0
 30
0.0
  3
INS16_087059046189102247140068
  1

  0
CIRCLE
  5
102
330
FE
100
AcDbEntity
  8
R-PIPE-AIR
  6
Continuous
 62
    60
370
     0
100
AcDbCircle
 10
-0.0004999998709536
 20
0.000499999630847
 30
0.0
 40
7.94
  0
CIRCLE
  5
103
330
FE
100
AcDbEntity
  8
R-PIPE-AIR
  6
Continuous
 62
    60
370
     0
100
AcDbCircle
 10
-0.0004999998709536
 20
0.000499999630847
 30
0.0
 40
27.93999999999869
  0
ENDBLK
  5
100
330
FE
100
AcDbEntity
  8
0
100
AcDbBlockEnd
  0
BLOCK
  5
106
330
105
100
AcDbEntity
  8
0
100
AcDbBlockBegin
  2
INS17_087059046190102247140068
 70
     0
 71
     0
 10
0.0
 20
0.0
 30
0.0
  3
INS17_087059046190102247140068
  1

  0
CIRCLE
  5
109
330
105
100
AcDbEntity
  8
R-PIPE-AIR
  6
Continuous
 62
    60
370
     0
100
AcDbCircle
 10
-0.0004999998709536
 20
-0.0004999978336855
 30
0.0
 40
4.759999999998399
  0
CIRCLE
  5
10A
330
105
100
AcDbEntity
  8
R-PIPE-AIR
  6
Continuous
 62
    60
370
     0
100
AcDbCircle
 10
-0.0004999998709536
 20
-0.0004999978336855
 30
0.0
 40
14.75999999999476
  0
ENDBLK
  5
107
330
105
100
AcDbEntity
  8
0
100
AcDbBlockEnd
  0
BLOCK
  5
10C
330
10B
100
AcDbEntity
  8
0
100
AcDbBlockBegin
  2
INS18_087059046191102247140068
 70
     0
 71
     0
 10
0.0
 20
0.0
 30
0.0
  3
INS18_087059046191102247140068
  1

  0
CIRCLE
  5
10F
330
10B
100
AcDbEntity
  8
R-PIPE-AIR
  6
Continuous
 62
    60
370
     0
100
AcDbCircle
 10
-0.0004999998636777
 20
-0.0004999978336855
 30
0.0
 40
7.94
  0
CIRCLE
  5
110
330
10B
100
AcDbEntity
  8
R-PIPE-AIR
  6
Continuous
 62
    60
370
     0
100
AcDbCircle
 10
-0.0004999998636777
 20
-0.0004999978336855
 30
0.0
 40
27.93999999999869
  0
ENDBLK
  5
10D
330
10B
100
AcDbEntity
  8
0
100
AcDbBlockEnd
  0
BLOCK
  5
115
330
114
100
AcDbEntity
  8
0
100
AcDbBlockBegin
  2
INS19_087059046192102247140068
 70
     0
 71
     0
 10
0.0
 20
0.0
 30
0.0
  3
INS19_087059046192102247140068
  1

  0
CIRCLE
  5
118
330
114
100
AcDbEntity
  8
R-PIPE-AIR
  6
Continuous
 62
    60
370
     0
100
AcDbCircle
 10
-0.0004999999000574
 20
-0.0005000000383006
 30
0.0
 40
4.759999999998399
  0
CIRCLE
  5
119
330
114
100
AcDbEntity
  8
R-PIPE-AIR
  6
Continuous
 62
    60
370
     0
100
AcDbCircle
 10
-0.0004999999000574
 20
-0.0005000000383006
 30
0.0
 40
14.75999999999476
  0
ENDBLK
  5
116
330
114
100
AcDbEntity
  8
0
100
AcDbBlockEnd
  0
BLOCK
  5
11C
330
11B
100
AcDbEntity
  8
0
100
AcDbBlockBegin
  2
INS20_087059046193102247140068
 70
     0
 71
     0
 10
0.0
 20
0.0
 30
0.0
  3
INS20_087059046193102247140068
  1

  0
CIRCLE
  5
11F
330
11B
100
AcDbEntity
  8
R-PIPE-AIR
  6
Continuous
 62
    60
370
     0
100
AcDbCircle
 10
-0.0004999998855055
 20
-0.0004999969969504
 30
0.0
 40
4.759999999998399
  0
CIRCLE
  5
120
330
11B
100
AcDbEntity
  8
R-PIPE-AIR
  6
Continuous
 62
    60
370
     0
100
AcDbCircle
 10
-0.0004999998855055
 20
-0.0004999969969504
 30
0.0
 40
14.75999999999476
  0
ENDBLK
  5
11D
330
11B
100
AcDbEntity
  8
0
100
AcDbBlockEnd
  0
BLOCK
  5
126
330
125
100
AcDbEntity
  8
0
100
AcDbBlockBegin
  2
INS21_102059046203102247140068
 70
     0
 71
     0
 10
0.0
 20
0.0
 30
0.0
  3
INS21_102059046203102247140068
  1

  0
CIRCLE
  5
129
330
125
100
AcDbEntity
  8
R-PIPE-AIR
  6
Continuous
 62
    60
370
     0
100
AcDbCircle
 10
-0.0004999998782296
 20
-0.0004999973680242
 30
0.0
 40
6.349999999998545
  0
CIRCLE
  5
12A
330
125
100
AcDbEntity
  8
R-PIPE-AIR
  6
Continuous
 62
    60
370
     0
100
AcDbCircle
 10
-0.0004999998782296
 20
-0.0004999973680242
 30
0.0
 40
16.34999999999855
  0
ENDBLK
  5
127
330
125
100
AcDbEntity
  8
0
100
AcDbBlockEnd
  0
BLOCK
  5
131
330
130
100
AcDbEntity
  8
0
100
AcDbBlockBegin
  2
SGP_22_118059046218102247140068
 70
     0
 71
     0
 10
0.0
 20
0.0
 30
0.0
  3
SGP_22_118059046218102247140068
  1

  0
CIRCLE
  5
134
330
130
100
AcDbEntity
  8
スリーブ
  6
Continuous
 62
    60
370
     9
100
AcDbCircle
 10
0.0
 20
0.0
 30
0.0
 40
57.15000000000001
  0
LINE
  5
135
330
130
100
AcDbEntity
  8
スリーブ
  6
CENTER2
 62
     8
370
     9
100
AcDbLine
 10
0.0
 20
117.1500000000015
 30
0.0
 11
0.0
 21
-117.1500000000015
 31
0.0
  0
LINE
  5
136
330
130
100
AcDbEntity
  8
スリーブ
  6
CENTER2
 62
     8
370
     9
100
AcDbLine
 10
-117.1499999999942
 20
0.0
 30
0.0
 11
117.1500000000015
 21
0.0
 31
0.0
  0
ENDBLK
  5
132
330
130
100
AcDbEntity
  8
0
100
AcDbBlockEnd
  0
BLOCK
  5
138
330
137
100
AcDbEntity
  8
0
100
AcDbBlockBegin
  2
INS23_118059046219102247140068
 70
     0
 71
     0
 10
0.0
 20
0.0
 30
0.0
  3
INS23_118059046219102247140068
  1

  0
CIRCLE
  5
13B
330
137
100
AcDbEntity
  8
R-PIPE-AIR
  6
Continuous
 62
    60
370
     0
100
AcDbCircle
 10
-0.0004999998782296
 20
-0.0004999973680242
 30
0.0
 40
7.94
  0
CIRCLE
  5
13C
330
137
100
AcDbEntity
  8
R-PIPE-AIR
  6
Continuous
 62
    60
370
     0
100
AcDbCircle
 10
-0.0004999998782296
 20
-0.0004999973680242
 30
0.0
 40
27.93999999999869
  0
ENDBLK
  5
139
330
137
100
AcDbEntity
  8
0
100
AcDbBlockEnd
  0
BLOCK
  5
13F
330
13E
100
AcDbEntity
  8
0
100
AcDbBlockBegin
  2
SGP_24_118059046220102247140068
 70
     0
 71
     0
 10
0.0
 20
0.0
 30
0.0
  3
SGP_24_118059046220102247140068
  1

  0
CIRCLE
  5
142
330
13E
100
AcDbEntity
  8
スリーブ
  6
Continuous
 62
    60
370
     9
100
AcDbCircle
 10
0.0
 20
0.0
 30
0.0
 40
69.90000000000001
  0
LINE
  5
143
330
13E
100
AcDbEntity
  8
スリーブ
  6
CENTER2
 62
     8
370
     9
100
AcDbLine
 10
-129.9000023841873
 20
0.0
 30
0.0
 11
129.9000023841873
 21
0.0
 31
0.0
  0
LINE
  5
144
330
13E
100
AcDbEntity
  8
スリーブ
  6
CENTER2
 62
     8
370
     9
100
AcDbLine
 10
0.0
 20
129.9000023841873
 30
0.0
 11
0.0
 21
-129.9000023841873
 31
0.0
  0
ENDBLK
  5
140
330
13E
100
AcDbEntity
  8
0
100
AcDbBlockEnd
  0
BLOCK
  5
146
330
145
100
AcDbEntity
  8
0
100
AcDbBlockBegin
  2
INS25_118059046221102247140068
 70
     0
 71
     0
 10
0.0
 20
0.0
 30
0.0
  3
INS25_118059046221102247140068
  1

  0
CIRCLE
  5
149
330
145
100
AcDbEntity
  8
R-PIPE-AIR
  6
Continuous
 62
    60
370
     0
100
AcDbCircle
 10
-0.0004999998782296
 20
-0.0004999973680242
 30
0.0
 40
6.349999999998545
  0
CIRCLE
  5
14A
330
145
100
AcDbEntity
  8
R-PIPE-AIR
  6
Continuous
 62
    60
370
     0
100
AcDbCircle
 10
-0.0004999998782296
 20
-0.0004999973680242
 30
0.0
 40
16.34999999999855
  0
ENDBLK
  5
147
330
145
100
AcDbEntity
  8
0
100
AcDbBlockEnd
  0
BLOCK
  5
14C
330
14B
100
AcDbEntity
  8
0
100
AcDbBlockBegin
  2
INS26_118059046222102247140068
 70
     0
 71
     0
 10
0.0
 20
0.0
 30
0.0
  3
INS26_118059046222102247140068
  1

  0
CIRCLE
  5
14F
330
14B
100
AcDbEntity
  8
R-PIPE-AIR
  6
Continuous
 62
    60
370
     0
100
AcDbCircle
 10
-0.0004999998855055
 20
-0.0005000000383006
 30
0.0
 40
9.525
  0
CIRCLE
  5
150
330
14B
100
AcDbEntity
  8
R-PIPE-AIR
  6
Continuous
 62
    60
370
     0
100
AcDbCircle
 10
-0.0004999998855055
 20
-0.0005000000383006
 30
0.0
 40
29.52500000000146
  0
ENDBLK
  5
14D
330
14B
100
AcDbEntity
  8
0
100
AcDbBlockEnd
  0
BLOCK
  5
156
330
155
100
AcDbEntity
  8
0
100
AcDbBlockBegin
  2
SGP_27_133059046234102247140068
 70
     0
 71
     0
 10
0.0
 20
0.0
 30
0.0
  3
SGP_27_133059046234102247140068
  1

  0
CIRCLE
  5
159
330
155
100
AcDbEntity
  8
スリーブ
  6
Continuous
 62
    60
370
     9
100
AcDbCircle
 10
0.0
 20
0.0
 30
0.0
 40
69.90000000000001
  0
LINE
  5
15A
330
155
100
AcDbEntity
  8
スリーブ
  6
CENTER2
 62
     8
370
     9
100
AcDbLine
 10
-129.9000023841873
 20
0.0
 30
0.0
 11
129.9000023841873
 21
0.0
 31
0.0
  0
LINE
  5
15B
330
155
100
AcDbEntity
  8
スリーブ
  6
CENTER2
 62
     8
370
     9
100
AcDbLine
 10
0.0
 20
129.9000023841873
 30
0.0
 11
0.0
 21
-129.9000023841873
 31
0.0
  0
ENDBLK
  5
157
330
155
100
AcDbEntity
  8
0
100
AcDbBlockEnd
  0
BLOCK
  5
15D
330
15C
100
AcDbEntity
  8
0
100
AcDbBlockBegin
  2
SGP_28_133059046235102247140068
 70
     0
 71
     0
 10
0.0
 20
0.0
 30
0.0
  3
SGP_28_133059046235102247140068
  1

  0
CIRCLE
  5
160
330
15C
100
AcDbEntity
  8
スリーブ
  6
Continuous
 62
    60
370
     9
100
AcDbCircle
 10
0.0
 20
0.0
 30
0.0
 40
69.90000000000001
  0
LINE
  5
161
330
15C
100
AcDbEntity
  8
スリーブ
  6
CENTER2
 62
     8
370
     9
100
AcDbLine
 10
-129.9000023841873
 20
0.0
 30
0.0
 11
129.9000023841873
 21
0.0
 31
0.0
  0
LINE
  5
162
330
15C
100
AcDbEntity
  8
スリーブ
  6
CENTER2
 62
     8
370
     9
100
AcDbLine
 10
0.0
 20
129.9000023841873
 30
0.0
 11
0.0
 21
-129.9000023841873
 31
0.0
  0
ENDBLK
  5
15E
330
15C
100
AcDbEntity
  8
0
100
AcDbBlockEnd
  0
BLOCK
  5
164
330
163
100
AcDbEntity
  8
0
100
AcDbBlockBegin
  2
SGP_29_133059046236102247140068
 70
     0
 71
     0
 10
0.0
 20
0.0
 30
0.0
  3
SGP_29_133059046236102247140068
  1

  0
CIRCLE
  5
167
330
163
100
AcDbEntity
  8
スリーブ
  6
Continuous
 62
    60
370
     9
100
AcDbCircle
 10
0.0
 20
0.0
 30
0.0
 40
69.90000000000001
  0
LINE
  5
168
330
163
100
AcDbEntity
  8
スリーブ
  6
CENTER2
 62
     8
370
     9
100
AcDbLine
 10
-129.9000023841873
 20
0.0
 30
0.0
 11
129.9000023841873
 21
0.0
 31
0.0
  0
LINE
  5
169
330
163
100
AcDbEntity
  8
スリーブ
  6
CENTER2
 62
     8
370
     9
100
AcDbLine
 10
0.0
 20
129.9000023841873
 30
0.0
 11
0.0
 21
-129.9000023841873
 31
0.0
  0
ENDBLK
  5
165
330
163
100
AcDbEntity
  8
0
100
AcDbBlockEnd
  0
BLOCK
  5
16B
330
16A
100
AcDbEntity
  8
0
100
AcDbBlockBegin
  2
SGP_30_133059046237102247140068
 70
     0
 71
     0
 10
0.0
 20
0.0
 30
0.0
  3
SGP_30_133059046237102247140068
  1

  0
CIRCLE
  5
16E
330
16A
100
AcDbEntity
  8
スリーブ
  6
Continuous
 62
    60
370
     9
100
AcDbCircle
 10
0.0
 20
0.0
 30
0.0
 40
69.90000000000001
  0
LINE
  5
16F
330
16A
100
AcDbEntity
  8
スリーブ
  6
CENTER2
 62
     8
370
     9
100
AcDbLine
 10
-129.9000023841873
 20
0.0
 30
0.0
 11
129.9000023841873
 21
0.0
 31
0.0
  0
LINE
  5
170
330
16A
100
AcDbEntity
  8
スリーブ
  6
CENTER2
 62
     8
370
     9
100
AcDbLine
 10
0.0
 20
129.9000023841873
 30
0.0
 11
0.0
 21
-129.9000023841873
 31
0.0
  0
ENDBLK
  5
16C
330
16A
100
AcDbEntity
  8
0
100
AcDbBlockEnd
  0
BLOCK
  5
172
330
171
100
AcDbEntity
  8
0
100
AcDbBlockBegin
  2
INS31_133059046238102247140068
 70
     0
 71
     0
 10
0.0
 20
0.0
 30
0.0
  3
INS31_133059046238102247140068
  1

  0
CIRCLE
  5
175
330
171
100
AcDbEntity
  8
R-PIPE-AIR
  6
Continuous
 62
    60
370
     0
100
AcDbCircle
 10
-0.0004999998782296
 20
-0.0004999973680242
 30
0.0
 40
6.349999999998545
  0
CIRCLE
  5
176
330
171
100
AcDbEntity
  8
R-PIPE-AIR
  6
Continuous
 62
    60
370
     0
100
AcDbCircle
 10
-0.0004999998782296
 20
-0.0004999973680242
 30
0.0
 40
16.34999999999855
  0
ENDBLK
  5
173
330
171
100
AcDbEntity
  8
0
100
AcDbBlockEnd
  0
BLOCK
  5
178
330
177
100
AcDbEntity
  8
0
100
AcDbBlockBegin
  2
INS32_133059046239102247140068
 70
     0
 71
     0
 10
0.0
 20
0.0
 30
0.0
  3
INS32_133059046239102247140068
  1

  0
CIRCLE
  5
17B
330
177
100
AcDbEntity
  8
R-PIPE-AIR
  6
Continuous
 62
    60
370
     0
100
AcDbCircle
 10
-0.0004999998855055
 20
-0.0004999973680242
 30
0.0
 40
6.349999999998545
  0
CIRCLE
  5
17C
330
177
100
AcDbEntity
  8
R-PIPE-AIR
  6
Continuous
 62
    60
370
     0
100
AcDbCircle
 10
-0.0004999998855055
 20
-0.0004999973680242
 30
0.0
 40
16.34999999999855
  0
ENDBLK
  5
179
330
177
100
AcDbEntity
  8
0
100
AcDbBlockEnd
  0
BLOCK
  5
17E
330
17D
100
AcDbEntity
  8
0
100
AcDbBlockBegin
  2
INS33_133059046240102247140068
 70
     0
 71
     0
 10
0.0
 20
0.0
 30
0.0
  3
INS33_133059046240102247140068
  1

  0
CIRCLE
  5
181
330
17D
100
AcDbEntity
  8
R-PIPE-AIR
  6
Continuous
 62
    60
370
     0
100
AcDbCircle
 10
-0.0004999998855055
 20
-0.0004999973680242
 30
0.0
 40
6.349999999998545
  0
CIRCLE
  5
182
330
17D
100
AcDbEntity
  8
R-PIPE-AIR
  6
Continuous
 62
    60
370
     0
100
AcDbCircle
 10
-0.0004999998855055
 20
-0.0004999973680242
 30
0.0
 40
16.34999999999855
  0
ENDBLK
  5
17F
330
17D
100
AcDbEntity
  8
0
100
AcDbBlockEnd
  0
BLOCK
  5
184
330
183
100
AcDbEntity
  8
0
100
AcDbBlockBegin
  2
INS34_133059046241102247140068
 70
     0
 71
     0
 10
0.0
 20
0.0
 30
0.0
  3
INS34_133059046241102247140068
  1

  0
CIRCLE
  5
187
330
183
100
AcDbEntity
  8
R-PIPE-AIR
  6
Continuous
 62
    60
370
     0
100
AcDbCircle
 10
-0.0004999998782296
 20
-0.0004999973680242
 30
0.0
 40
6.349999999998545
  0
CIRCLE
  5
188
330
183
100
AcDbEntity
  8
R-PIPE-AIR
  6
Continuous
 62
    60
370
     0
100
AcDbCircle
 10
-0.0004999998782296
 20
-0.0004999973680242
 30
0.0
 40
16.34999999999855
  0
ENDBLK
  5
185
330
183
100
AcDbEntity
  8
0
100
AcDbBlockEnd
  0
BLOCK
  5
18A
330
189
100
AcDbEntity
  8
0
100
AcDbBlockBegin
  2
INS35_133059046242102247140068
 70
     0
 71
     0
 10
0.0
 20
0.0
 30
0.0
  3
INS35_133059046242102247140068
  1

  0
CIRCLE
  5
18D
330
189
100
AcDbEntity
  8
R-PIPE-AIR
  6
Continuous
 62
    60
370
     0
100
AcDbCircle
 10
-0.0004999998855055
 20
-0.0004999969969504
 30
0.0
 40
11.11000000000058
  0
CIRCLE
  5
18E
330
189
100
AcDbEntity
  8
R-PIPE-AIR
  6
Continuous
 62
    60
370
     0
100
AcDbCircle
 10
-0.0004999998855055
 20
-0.0004999969969504
 30
0.0
 40
31.11000000000058
  0
ENDBLK
  5
18B
330
189
100
AcDbEntity
  8
0
100
AcDbBlockEnd
  0
BLOCK
  5
190
330
18F
100
AcDbEntity
  8
0
100
AcDbBlockBegin
  2
INS36_133059046243102247140068
 70
     0
 71
     0
 10
0.0
 20
0.0
 30
0.0
  3
INS36_133059046243102247140068
  1

  0
CIRCLE
  5
193
330
18F
100
AcDbEntity
  8
R-PIPE-AIR
  6
Continuous
 62
    60
370
     0
100
AcDbCircle
 10
-0.0004999998782296
 20
-0.0004999969969504
 30
0.0
 40
12.70000000000073
  0
CIRCLE
  5
194
330
18F
100
AcDbEntity
  8
R-PIPE-AIR
  6
Continuous
 62
    60
370
     0
100
AcDbCircle
 10
-0.0004999998782296
 20
-0.0004999969969504
 30
0.0
 40
32.70000000000073
  0
ENDBLK
  5
191
330
18F
100
AcDbEntity
  8
0
100
AcDbBlockEnd
  0
BLOCK
  5
196
330
195
100
AcDbEntity
  8
0
100
AcDbBlockBegin
  2
INS37_133059046244102247140068
 70
     0
 71
     0
 10
0.0
 20
0.0
 30
0.0
  3
INS37_133059046244102247140068
  1

  0
CIRCLE
  5
199
330
195
100
AcDbEntity
  8
R-PIPE-AIR
  6
Continuous
 62
    60
370
     0
100
AcDbCircle
 10
-0.0004999998927815
 20
-0.0004999969969504
 30
0.0
 40
34.29000000000087
  0
CIRCLE
  5
19A
330
195
100
AcDbEntity
  8
R-PIPE-AIR
  6
Continuous
 62
    60
370
     0
100
AcDbCircle
 10
-0.0004999998927815
 20
-0.0004999969969504
 30
0.0
 40
14.29
  0
ENDBLK
  5
197
330
195
100
AcDbEntity
  8
0
100
AcDbBlockEnd
  0
BLOCK
  5
19C
330
19B
100
AcDbEntity
  8
0
100
AcDbBlockBegin
  2
INS38_149059046245102247140068
 70
     0
 71
     0
 10
0.0
 20
0.0
 30
0.0
  3
INS38_149059046245102247140068
  1

  0
CIRCLE
  5
19F
330
19B
100
AcDbEntity
  8
R-PIPE-AIR
  6
Continuous
 62
    60
370
     0
100
AcDbCircle
 10
-0.0004999998855055
 20
-0.0004999969969504
 30
0.0
 40
15.875
  0
CIRCLE
  5
1A0
330
19B
100
AcDbEntity
  8
R-PIPE-AIR
  6
Continuous
 62
    60
370
     0
100
AcDbCircle
 10
-0.0004999998855055
 20
-0.0004999969969504
 30
0.0
 40
35.875
  0
ENDBLK
  5
19D
330
19B
100
AcDbEntity
  8
0
100
AcDbBlockEnd
  0
BLOCK
  5
1B6
330
1B5
100
AcDbEntity
  8
0
100
AcDbBlockBegin
  2
SGP_39_165059046009102247140068
 70
     0
 71
     0
 10
0.0
 20
0.0
 30
0.0
  3
SGP_39_165059046009102247140068
  1

  0
CIRCLE
  5
1B9
330
1B5
100
AcDbEntity
  8
スリーブ
  6
Continuous
 62
    60
370
     9
100
AcDbCircle
 10
0.0
 20
0.0
 30
0.0
 40
69.90000000000001
  0
LINE
  5
1BA
330
1B5
100
AcDbEntity
  8
スリーブ
  6
CENTER2
 62
     8
370
     9
100
AcDbLine
 10
-129.9000023841873
 20
0.0
 30
0.0
 11
129.9000023841873
 21
0.0
 31
0.0
  0
LINE
  5
1BB
330
1B5
100
AcDbEntity
  8
スリーブ
  6
CENTER2
 62
     8
370
     9
100
AcDbLine
 10
0.0
 20
129.9000023841873
 30
0.0
 11
0.0
 21
-129.9000023841873
 31
0.0
  0
ENDBLK
  5
1B7
330
1B5
100
AcDbEntity
  8
0
100
AcDbBlockEnd
  0
BLOCK
  5
1BD
330
1BC
100
AcDbEntity
  8
0
100
AcDbBlockBegin
  2
SGP_40_165059046010102247140068
 70
     0
 71
     0
 10
0.0
 20
0.0
 30
0.0
  3
SGP_40_165059046010102247140068
  1

  0
CIRCLE
  5
1C0
330
1BC
100
AcDbEntity
  8
スリーブ
  6
Continuous
 62
    60
370
     9
100
AcDbCircle
 10
0.0
 20
0.0
 30
0.0
 40
69.90000000000001
  0
LINE
  5
1C1
330
1BC
100
AcDbEntity
  8
スリーブ
  6
CENTER2
 62
     8
370
     9
100
AcDbLine
 10
-129.9000023841873
 20
0.0
 30
0.0
 11
129.9000023841873
 21
0.0
 31
0.0
  0
LINE
  5
1C2
330
1BC
100
AcDbEntity
  8
スリーブ
  6
CENTER2
 62
     8
370
     9
100
AcDbLine
 10
0.0
 20
129.9000023841873
 30
0.0
 11
0.0
 21
-129.9000023841873
 31
0.0
  0
ENDBLK
  5
1BE
330
1BC
100
AcDbEntity
  8
0
100
AcDbBlockEnd
  0
BLOCK
  5
1C4
330
1C3
100
AcDbEntity
  8
0
100
AcDbBlockBegin
  2
SGP_41_165059046011102247140068
 70
     0
 71
     0
 10
0.0
 20
0.0
 30
0.0
  3
SGP_41_165059046011102247140068
  1

  0
CIRCLE
  5
1C7
330
1C3
100
AcDbEntity
  8
スリーブ
  6
Continuous
 62
    60
370
     9
100
AcDbCircle
 10
0.0
 20
0.0
 30
0.0
 40
69.90000000000001
  0
LINE
  5
1C8
330
1C3
100
AcDbEntity
  8
スリーブ
  6
CENTER2
 62
     8
370
     9
100
AcDbLine
 10
-129.9000023841873
 20
0.0
 30
0.0
 11
129.9000023841873
 21
0.0
 31
0.0
  0
LINE
  5
1C9
330
1C3
100
AcDbEntity
  8
スリーブ
  6
CENTER2
 62
     8
370
     9
100
AcDbLine
 10
0.0
 20
129.9000023841873
 30
0.0
 11
0.0
 21
-129.9000023841873
 31
0.0
  0
ENDBLK
  5
1C5
330
1C3
100
AcDbEntity
  8
0
100
AcDbBlockEnd
  0
BLOCK
  5
1CB
330
1CA
100
AcDbEntity
  8
0
100
AcDbBlockBegin
  2
SGP_42_165059046012102247140068
 70
     0
 71
     0
 10
0.0
 20
0.0
 30
0.0
  3
SGP_42_165059046012102247140068
  1

  0
CIRCLE
  5
1CE
330
1CA
100
AcDbEntity
  8
スリーブ
  6
Continuous
 62
    60
370
     9
100
AcDbCircle
 10
0.0
 20
0.0
 30
0.0
 40
69.90000000000001
  0
LINE
  5
1CF
330
1CA
100
AcDbEntity
  8
スリーブ
  6
CENTER2
 62
     8
370
     9
100
AcDbLine
 10
-129.9000023841873
 20
0.0
 30
0.0
 11
129.9000023841873
 21
0.0
 31
0.0
  0
LINE
  5
1D0
330
1CA
100
AcDbEntity
  8
スリーブ
  6
CENTER2
 62
     8
370
     9
100
AcDbLine
 10
0.0
 20
129.9000023841873
 30
0.0
 11
0.0
 21
-129.9000023841873
 31
0.0
  0
ENDBLK
  5
1CC
330
1CA
100
AcDbEntity
  8
0
100
AcDbBlockEnd
  0
BLOCK
  5
1D2
330
1D1
100
AcDbEntity
  8
0
100
AcDbBlockBegin
  2
SGP_43_165059046013102247140068
 70
     0
 71
     0
 10
0.0
 20
0.0
 30
0.0
  3
SGP_43_165059046013102247140068
  1

  0
CIRCLE
  5
1D5
330
1D1
100
AcDbEntity
  8
スリーブ
  6
Continuous
 62
    60
370
     9
100
AcDbCircle
 10
0.0
 20
0.0
 30
0.0
 40
69.90000000000001
  0
LINE
  5
1D6
330
1D1
100
AcDbEntity
  8
スリーブ
  6
CENTER2
 62
     8
370
     9
100
AcDbLine
 10
-129.9000023841873
 20
0.0
 30
0.0
 11
129.9000023841873
 21
0.0
 31
0.0
  0
LINE
  5
1D7
330
1D1
100
AcDbEntity
  8
スリーブ
  6
CENTER2
 62
     8
370
     9
100
AcDbLine
 10
0.0
 20
129.9000023841873
 30
0.0
 11
0.0
 21
-129.9000023841873
 31
0.0
  0
ENDBLK
  5
1D3
330
1D1
100
AcDbEntity
  8
0
100
AcDbBlockEnd
  0
BLOCK
  5
1D9
330
1D8
100
AcDbEntity
  8
0
100
AcDbBlockBegin
  2
SGP_44_180059046025102247140068
 70
     0
 71
     0
 10
0.0
 20
0.0
 30
0.0
  3
SGP_44_180059046025102247140068
  1

  0
CIRCLE
  5
1DC
330
1D8
100
AcDbEntity
  8
スリーブ
  6
Continuous
 62
    60
370
     9
100
AcDbCircle
 10
0.0
 20
0.0
 30
0.0
 40
69.90000000000001
  0
LINE
  5
1DD
330
1D8
100
AcDbEntity
  8
スリーブ
  6
CENTER2
 62
     8
370
     9
100
AcDbLine
 10
-129.9000023841873
 20
0.0
 30
0.0
 11
129.9000023841873
 21
0.0
 31
0.0
  0
LINE
  5
1DE
330
1D8
100
AcDbEntity
  8
スリーブ
  6
CENTER2
 62
     8
370
     9
100
AcDbLine
 10
0.0
 20
129.9000023841873
 30
0.0
 11
0.0
 21
-129.9000023841873
 31
0.0
  0
ENDBLK
  5
1DA
330
1D8
100
AcDbEntity
  8
0
100
AcDbBlockEnd
  0
BLOCK
  5
1E0
330
1DF
100
AcDbEntity
  8
0
100
AcDbBlockBegin
  2
SGP_45_180059046026102247140068
 70
     0
 71
     0
 10
0.0
 20
0.0
 30
0.0
  3
SGP_45_180059046026102247140068
  1

  0
CIRCLE
  5
1E3
330
1DF
100
AcDbEntity
  8
スリーブ
  6
Continuous
 62
    60
370
     9
100
AcDbCircle
 10
0.0
 20
0.0
 30
0.0
 40
69.90000000000001
  0
LINE
  5
1E4
330
1DF
100
AcDbEntity
  8
スリーブ
  6
CENTER2
 62
     8
370
     9
100
AcDbLine
 10
-129.9000023841873
 20
0.0
 30
0.0
 11
129.9000023841873
 21
0.0
 31
0.0
  0
LINE
  5
1E5
330
1DF
100
AcDbEntity
  8
スリーブ
  6
CENTER2
 62
     8
370
     9
100
AcDbLine
 10
0.0
 20
129.9000023841873
 30
0.0
 11
0.0
 21
-129.9000023841873
 31
0.0
  0
ENDBLK
  5
1E1
330
1DF
100
AcDbEntity
  8
0
100
AcDbBlockEnd
  0
BLOCK
  5
1E7
330
1E6
100
AcDbEntity
  8
0
100
AcDbBlockBegin
  2
INS46_180059046027102247140068
 70
     0
 71
     0
 10
0.0
 20
0.0
 30
0.0
  3
INS46_180059046027102247140068
  1

  0
CIRCLE
  5
1EA
330
1E6
100
AcDbEntity
  8
R-PIPE-AIR
  6
Continuous
 62
    60
370
     0
100
AcDbCircle
 10
-0.0004999998782296
 20
-0.0005000000383006
 30
0.0
 40
9.525
  0
CIRCLE
  5
1EB
330
1E6
100
AcDbEntity
  8
R-PIPE-AIR
  6
Continuous
 62
    60
370
     0
100
AcDbCircle
 10
-0.0004999998782296
 20
-0.0005000000383006
 30
0.0
 40
29.52500000000146
  0
ENDBLK
  5
1E8
330
1E6
100
AcDbEntity
  8
0
100
AcDbBlockEnd
  0
BLOCK
  5
1ED
330
1EC
100
AcDbEntity
  8
0
100
AcDbBlockBegin
  2
INS47_180059046028102247140068
 70
     0
 71
     0
 10
0.0
 20
0.0
 30
0.0
  3
INS47_180059046028102247140068
  1

  0
CIRCLE
  5
1F0
330
1EC
100
AcDbEntity
  8
R-PIPE-AIR
  6
Continuous
 62
    60
370
     0
100
AcDbCircle
 10
-0.0004999998709536
 20
-0.0004999969969504
 30
0.0
 40
11.11000000000058
  0
CIRCLE
  5
1F1
330
1EC
100
AcDbEntity
  8
R-PIPE-AIR
  6
Continuous
 62
    60
370
     0
100
AcDbCircle
 10
-0.0004999998709536
 20
-0.0004999969969504
 30
0.0
 40
31.11000000000058
  0
ENDBLK
  5
1EE
330
1EC
100
AcDbEntity
  8
0
100
AcDbBlockEnd
  0
BLOCK
  5
1F3
330
1F2
100
AcDbEntity
  8
0
100
AcDbBlockBegin
  2
INS48_180059046029102247140068
 70
     0
 71
     0
 10
0.0
 20
0.0
 30
0.0
  3
INS48_180059046029102247140068
  1

  0
CIRCLE
  5
1F6
330
1F2
100
AcDbEntity
  8
R-PIPE-AIR
  6
Continuous
 62
    60
370
     0
100
AcDbCircle
 10
-0.0004999998782296
 20
-0.0004999969969504
 30
0.0
 40
12.70000000000073
  0
CIRCLE
  5
1F7
330
1F2
100
AcDbEntity
  8
R-PIPE-AIR
  6
Continuous
 62
    60
370
     0
100
AcDbCircle
 10
-0.0004999998782296
 20
-0.0004999969969504
 30
0.0
 40
32.70000000000073
  0
ENDBLK
  5
1F4
330
1F2
100
AcDbEntity
  8
0
100
AcDbBlockEnd
  0
BLOCK
  5
1F9
330
1F8
100
AcDbEntity
  8
0
100
AcDbBlockBegin
  2
INS49_180059046030102247140068
 70
     0
 71
     0
 10
0.0
 20
0.0
 30
0.0
  3
INS49_180059046030102247140068
  1

  0
CIRCLE
  5
1FC
330
1F8
100
AcDbEntity
  8
R-PIPE-AIR
  6
Continuous
 62
    60
370
     0
100
AcDbCircle
 10
-0.0004999998709536
 20
-0.0004999969969504
 30
0.0
 40
34.29000000000087
  0
CIRCLE
  5
1FD
330
1F8
100
AcDbEntity
  8
R-PIPE-AIR
  6
Continuous
 62
    60
370
     0
100
AcDbCircle
 10
-0.0004999998709536
 20
-0.0004999969969504
 30
0.0
 40
14.29
  0
ENDBLK
  5
1FA
330
1F8
100
AcDbEntity
  8
0
100
AcDbBlockEnd
  0
BLOCK
  5
1FF
330
1FE
100
AcDbEntity
  8
0
100
AcDbBlockBegin
  2
INS50_180059046031102247140068
 70
     0
 71
     0
 10
0.0
 20
0.0
 30
0.0
  3
INS50_180059046031102247140068
  1

  0
CIRCLE
  5
202
330
1FE
100
AcDbEntity
  8
R-PIPE-AIR
  6
Continuous
 62
    60
370
     0
100
AcDbCircle
 10
-0.0004999998709536
 20
-0.0004999969969504
 30
0.0
 40
15.875
  0
CIRCLE
  5
203
330
1FE
100
AcDbEntity
  8
R-PIPE-AIR
  6
Continuous
 62
    60
370
     0
100
AcDbCircle
 10
-0.0004999998709536
 20
-0.0004999969969504
 30
0.0
 40
35.875
  0
ENDBLK
  5
200
330
1FE
100
AcDbEntity
  8
0
100
AcDbBlockEnd
  0
BLOCK
  5
205
330
204
100
AcDbEntity
  8
0
100
AcDbBlockBegin
  2
INS51_180059046032102247140068
 70
     0
 71
     0
 10
0.0
 20
0.0
 30
0.0
  3
INS51_180059046032102247140068
  1

  0
CIRCLE
  5
208
330
204
100
AcDbEntity
  8
R-PIPE-AIR
  6
Continuous
 62
    60
370
     0
100
AcDbCircle
 10
-0.0004999998855055
 20
-0.0004999969969504
 30
0.0
 40
7.94
  0
CIRCLE
  5
209
330
204
100
AcDbEntity
  8
R-PIPE-AIR
  6
Continuous
 62
    60
370
     0
100
AcDbCircle
 10
-0.0004999998855055
 20
-0.0004999969969504
 30
0.0
 40
17.93999999999869
  0
ENDBLK
  5
206
330
204
100
AcDbEntity
  8
0
100
AcDbBlockEnd
  0
BLOCK
  5
20B
330
20A
100
AcDbEntity
  8
0
100
AcDbBlockBegin
  2
INS52_180059046033102247140068
 70
     0
 71
     0
 10
0.0
 20
0.0
 30
0.0
  3
INS52_180059046033102247140068
  1

  0
CIRCLE
  5
20E
330
20A
100
AcDbEntity
  8
R-PIPE-AIR
  6
Continuous
 62
    60
370
     0
100
AcDbCircle
 10
-0.0004999998782296
 20
-0.0004999969969504
 30
0.0
 40
7.94
  0
CIRCLE
  5
20F
330
20A
100
AcDbEntity
  8
R-PIPE-AIR
  6
Continuous
 62
    60
370
     0
100
AcDbCircle
 10
-0.0004999998782296
 20
-0.0004999969969504
 30
0.0
 40
17.93999999999869
  0
ENDBLK
  5
20C
330
20A
100
AcDbEntity
  8
0
100
AcDbBlockEnd
  0
BLOCK
  5
211
330
210
100
AcDbEntity
  8
0
100
AcDbBlockBegin
  2
INS53_180059046034102247140068
 70
     0
 71
     0
 10
0.0
 20
0.0
 30
0.0
  3
INS53_180059046034102247140068
  1

  0
CIRCLE
  5
214
330
210
100
AcDbEntity
  8
R-PIPE-AIR
  6
Continuous
 62
    60
370
     0
100
AcDbCircle
 10
-0.0004999998709536
 20
-0.0004999969969504
 30
0.0
 40
7.94
  0
CIRCLE
  5
215
330
210
100
AcDbEntity
  8
R-PIPE-AIR
  6
Continuous
 62
    60
370
     0
100
AcDbCircle
 10
-0.0004999998709536
 20
-0.0004999969969504
 30
0.0
 40
17.93999999999869
  0
ENDBLK
  5
212
330
210
100
AcDbEntity
  8
0
100
AcDbBlockEnd
  0
BLOCK
  5
217
330
216
100
AcDbEntity
  8
0
100
AcDbBlockBegin
  2
INS54_180059046035102247140068
 70
     0
 71
     0
 10
0.0
 20
0.0
 30
0.0
  3
INS54_180059046035102247140068
  1

  0
CIRCLE
  5
21A
330
216
100
AcDbEntity
  8
R-PIPE-AIR
  6
Continuous
 62
    60
370
     0
100
AcDbCircle
 10
-0.0004999998782296
 20
-0.0004999969969504
 30
0.0
 40
7.94
  0
CIRCLE
  5
21B
330
216
100
AcDbEntity
  8
R-PIPE-AIR
  6
Continuous
 62
    60
370
     0
100
AcDbCircle
 10
-0.0004999998782296
 20
-0.0004999969969504
 30
0.0
 40
17.93999999999869
  0
ENDBLK
  5
218
330
216
100
AcDbEntity
  8
0
100
AcDbBlockEnd
  0
BLOCK
  5
21D
330
21C
100
AcDbEntity
  8
0
100
AcDbBlockBegin
  2
INS55_180059046036102247140068
 70
     0
 71
     0
 10
0.0
 20
0.0
 30
0.0
  3
INS55_180059046036102247140068
  1

  0
CIRCLE
  5
220
330
21C
100
AcDbEntity
  8
R-PIPE-AIR
  6
Continuous
 62
    60
370
     0
100
AcDbCircle
 10
-0.0004999998782296
 20
-0.0004999969969504
 30
0.0
 40
7.94
  0
CIRCLE
  5
221
330
21C
100
AcDbEntity
  8
R-PIPE-AIR
  6
Continuous
 62
    60
370
     0
100
AcDbCircle
 10
-0.0004999998782296
 20
-0.0004999969969504
 30
0.0
 40
17.93999999999869
  0
ENDBLK
  5
21E
330
21C
100
AcDbEntity
  8
0
100
AcDbBlockEnd
  0
BLOCK
  5
223
330
222
100
AcDbEntity
  8
0
100
AcDbBlockBegin
  2
INS56_180059046037102247140068
 70
     0
 71
     0
 10
0.0
 20
0.0
 30
0.0
  3
INS56_180059046037102247140068
  1

  0
CIRCLE
  5
226
330
222
100
AcDbEntity
  8
R-PIPE-AIR
  6
Continuous
 62
    60
370
     0
100
AcDbCircle
 10
-0.0004999998782296
 20
-0.0004999969969504
 30
0.0
 40
7.94
  0
CIRCLE
  5
227
330
222
100
AcDbEntity
  8
R-PIPE-AIR
  6
Continuous
 62
    60
370
     0
100
AcDbCircle
 10
-0.0004999998782296
 20
-0.0004999969969504
 30
0.0
 40
17.93999999999869
  0
ENDBLK
  5
224
330
222
100
AcDbEntity
  8
0
100
AcDbBlockEnd
  0
BLOCK
  5
229
330
228
100
AcDbEntity
  8
0
100
AcDbBlockBegin
  2
INS57_180059046038102247140068
 70
     0
 71
     0
 10
0.0
 20
0.0
 30
0.0
  3
INS57_180059046038102247140068
  1

  0
CIRCLE
  5
22C
330
228
100
AcDbEntity
  8
R-PIPE-AIR
  6
Continuous
 62
    60
370
     0
100
AcDbCircle
 10
-0.0004999998782296
 20
-0.0004999969969504
 30
0.0
 40
7.94
  0
CIRCLE
  5
22D
330
228
100
AcDbEntity
  8
R-PIPE-AIR
  6
Continuous
 62
    60
370
     0
100
AcDbCircle
 10
-0.0004999998782296
 20
-0.0004999969969504
 30
0.0
 40
17.93999999999869
  0
ENDBLK
  5
22A
330
228
100
AcDbEntity
  8
0
100
AcDbBlockEnd
  0
BLOCK
  5
22F
330
22E
100
AcDbEntity
  8
0
100
AcDbBlockBegin
  2
INS58_180059046039102247140068
 70
     0
 71
     0
 10
0.0
 20
0.0
 30
0.0
  3
INS58_180059046039102247140068
  1

  0
CIRCLE
  5
232
330
22E
100
AcDbEntity
  8
R-PIPE-AIR
  6
Continuous
 62
    60
370
     0
100
AcDbCircle
 10
-0.0004999998782296
 20
-0.0004999969969504
 30
0.0
 40
17.45999999999913
  0
CIRCLE
  5
233
330
22E
100
AcDbEntity
  8
R-PIPE-AIR
  6
Continuous
 62
    60
370
     0
100
AcDbCircle
 10
-0.0004999998782296
 20
-0.0004999969969504
 30
0.0
 40
37.45999999999913
  0
ENDBLK
  5
230
330
22E
100
AcDbEntity
  8
0
100
AcDbBlockEnd
  0
BLOCK
  5
235
330
234
100
AcDbEntity
  8
0
100
AcDbBlockBegin
  2
INS59_196059046040102247140068
 70
     0
 71
     0
 10
0.0
 20
0.0
 30
0.0
  3
INS59_196059046040102247140068
  1

  0
CIRCLE
  5
238
330
234
100
AcDbEntity
  8
R-PIPE-AIR
  6
Continuous
 62
    60
370
     0
100
AcDbCircle
 10
-0.0004999998709536
 20
-0.0004999969969504
 30
0.0
 40
19.04999999999927
  0
CIRCLE
  5
239
330
234
100
AcDbEntity
  8
R-PIPE-AIR
  6
Continuous
 62
    60
370
     0
100
AcDbCircle
 10
-0.0004999998709536
 20
-0.0004999969969504
 30
0.0
 40
39.04999999999927
  0
ENDBLK
  5
236
330
234
100
AcDbEntity
  8
0
100
AcDbBlockEnd
  0
BLOCK
  5
25B
330
25A
100
AcDbEntity
  8
0
100
AcDbBlockBegin
  2
SGP_60_212059046056102247140068
 70
     0
 71
     0
 10
0.0
 20
0.0
 30
0.0
  3
SGP_60_212059046056102247140068
  1

  0
CIRCLE
  5
25E
330
25A
100
AcDbEntity
  8
スリーブ
  6
Continuous
 62
    60
370
     9
100
AcDbCircle
 10
0.0
 20
0.0
 30
0.0
 40
69.90000000000001
  0
LINE
  5
25F
330
25A
100
AcDbEntity
  8
スリーブ
  6
CENTER2
 62
     8
370
     9
100
AcDbLine
 10
-129.9000023841873
 20
0.0
 30
0.0
 11
129.9000023841873
 21
0.0
 31
0.0
  0
LINE
  5
260
330
25A
100
AcDbEntity
  8
スリーブ
  6
CENTER2
 62
     8
370
     9
100
AcDbLine
 10
0.0
 20
129.9000023841873
 30
0.0
 11
0.0
 21
-129.9000023841873
 31
0.0
  0
ENDBLK
  5
25C
330
25A
100
AcDbEntity
  8
0
100
AcDbBlockEnd
  0
BLOCK
  5
262
330
261
100
AcDbEntity
  8
0
100
AcDbBlockBegin
  2
SGP_61_212059046057102247140068
 70
     0
 71
     0
 10
0.0
 20
0.0
 30
0.0
  3
SGP_61_212059046057102247140068
  1

  0
CIRCLE
  5
265
330
261
100
AcDbEntity
  8
スリーブ
  6
Continuous
 62
    60
370
     9
100
AcDbCircle
 10
0.0
 20
0.0
 30
0.0
 40
69.90000000000001
  0
LINE
  5
266
330
261
100
AcDbEntity
  8
スリーブ
  6
CENTER2
 62
     8
370
     9
100
AcDbLine
 10
-129.9000023841873
 20
0.0
 30
0.0
 11
129.9000023841873
 21
0.0
 31
0.0
  0
LINE
  5
267
330
261
100
AcDbEntity
  8
スリーブ
  6
CENTER2
 62
     8
370
     9
100
AcDbLine
 10
0.0
 20
129.9000023841873
 30
0.0
 11
0.0
 21
-129.9000023841873
 31
0.0
  0
ENDBLK
  5
263
330
261
100
AcDbEntity
  8
0
100
AcDbBlockEnd
  0
BLOCK
  5
269
330
268
100
AcDbEntity
  8
0
100
AcDbBlockBegin
  2
SGP_62_212059046058102247140068
 70
     0
 71
     0
 10
0.0
 20
0.0
 30
0.0
  3
SGP_62_212059046058102247140068
  1

  0
CIRCLE
  5
26C
330
268
100
AcDbEntity
  8
スリーブ
  6
Continuous
 62
    60
370
     9
100
AcDbCircle
 10
0.0
 20
0.0
 30
0.0
 40
69.90000000000001
  0
LINE
  5
26D
330
268
100
AcDbEntity
  8
スリーブ
  6
CENTER2
 62
     8
370
     9
100
AcDbLine
 10
-129.9000023841873
 20
0.0
 30
0.0
 11
129.9000023841873
 21
0.0
 31
0.0
  0
LINE
  5
26E
330
268
100
AcDbEntity
  8
スリーブ
  6
CENTER2
 62
     8
370
     9
100
AcDbLine
 10
0.0
 20
129.9000023841873
 30
0.0
 11
0.0
 21
-129.9000023841873
 31
0.0
  0
ENDBLK
  5
26A
330
268
100
AcDbEntity
  8
0
100
AcDbBlockEnd
  0
BLOCK
  5
270
330
26F
100
AcDbEntity
  8
0
100
AcDbBlockBegin
  2
SGP_63_227059046072102247140068
 70
     0
 71
     0
 10
0.0
 20
0.0
 30
0.0
  3
SGP_63_227059046072102247140068
  1

  0
CIRCLE
  5
273
330
26F
100
AcDbEntity
  8
スリーブ
  6
Continuous
 62
    60
370
     9
100
AcDbCircle
 10
0.0
 20
0.0
 30
0.0
 40
69.90000000000001
  0
LINE
  5
274
330
26F
100
AcDbEntity
  8
スリーブ
  6
CENTER2
 62
     8
370
     9
100
AcDbLine
 10
-129.9000023841873
 20
0.0
 30
0.0
 11
129.9000023841873
 21
0.0
 31
0.0
  0
LINE
  5
275
330
26F
100
AcDbEntity
  8
スリーブ
  6
CENTER2
 62
     8
370
     9
100
AcDbLine
 10
0.0
 20
129.9000023841873
 30
0.0
 11
0.0
 21
-129.9000023841873
 31
0.0
  0
ENDBLK
  5
271
330
26F
100
AcDbEntity
  8
0
100
AcDbBlockEnd
  0
BLOCK
  5
277
330
276
100
AcDbEntity
  8
0
100
AcDbBlockBegin
  2
SGP_64_227059046073102247140068
 70
     0
 71
     0
 10
0.0
 20
0.0
 30
0.0
  3
SGP_64_227059046073102247140068
  1

  0
CIRCLE
  5
27A
330
276
100
AcDbEntity
  8
スリーブ
  6
Continuous
 62
    60
370
     9
100
AcDbCircle
 10
0.0
 20
0.0
 30
0.0
 40
69.90000000000001
  0
LINE
  5
27B
330
276
100
AcDbEntity
  8
スリーブ
  6
CENTER2
 62
     8
370
     9
100
AcDbLine
 10
-129.9000023841873
 20
0.0
 30
0.0
 11
129.9000023841873
 21
0.0
 31
0.0
  0
LINE
  5
27C
330
276
100
AcDbEntity
  8
スリーブ
  6
CENTER2
 62
     8
370
     9
100
AcDbLine
 10
0.0
 20
129.9000023841873
 30
0.0
 11
0.0
 21
-129.9000023841873
 31
0.0
  0
ENDBLK
  5
278
330
276
100
AcDbEntity
  8
0
100
AcDbBlockEnd
  0
BLOCK
  5
27E
330
27D
100
AcDbEntity
  8
0
100
AcDbBlockBegin
  2
SGP_65_227059046074102247140068
 70
     0
 71
     0
 10
0.0
 20
0.0
 30
0.0
  3
SGP_65_227059046074102247140068
  1

  0
CIRCLE
  5
281
330
27D
100
AcDbEntity
  8
スリーブ
  6
Continuous
 62
    60
370
     9
100
AcDbCircle
 10
0.0
 20
0.0
 30
0.0
 40
82.60000000000001
  0
LINE
  5
282
330
27D
100
AcDbEntity
  8
スリーブ
  6
CENTER2
 62
     8
370
     9
100
AcDbLine
 10
-142.6000023841843
 20
0.0
 30
0.0
 11
142.6000023841843
 21
0.0
 31
0.0
  0
LINE
  5
283
330
27D
100
AcDbEntity
  8
スリーブ
  6
CENTER2
 62
     8
370
     9
100
AcDbLine
 10
0.0
 20
142.6000023841843
 30
0.0
 11
0.0
 21
-142.6000023841843
 31
0.0
  0
ENDBLK
  5
27F
330
27D
100
AcDbEntity
  8
0
100
AcDbBlockEnd
  0
BLOCK
  5
285
330
284
100
AcDbEntity
  8
0
100
AcDbBlockBegin
  2
INS66_227059046075102247140068
 70
     0
 71
     0
 10
0.0
 20
0.0
 30
0.0
  3
INS66_227059046075102247140068
  1

  0
CIRCLE
  5
288
330
284
100
AcDbEntity
  8
R-PIPE-AIR
  6
Continuous
 62
    60
370
     0
100
AcDbCircle
 10
-0.0004999998855055
 20
-0.0004999969969504
 30
0.0
 40
11.11000000000058
  0
CIRCLE
  5
289
330
284
100
AcDbEntity
  8
R-PIPE-AIR
  6
Continuous
 62
    60
370
     0
100
AcDbCircle
 10
-0.0004999998855055
 20
-0.0004999969969504
 30
0.0
 40
31.11000000000058
  0
ENDBLK
  5
286
330
284
100
AcDbEntity
  8
0
100
AcDbBlockEnd
  0
BLOCK
  5
28B
330
28A
100
AcDbEntity
  8
0
100
AcDbBlockBegin
  2
INS67_227059046076102247140068
 70
     0
 71
     0
 10
0.0
 20
0.0
 30
0.0
  3
INS67_227059046076102247140068
  1

  0
CIRCLE
  5
28E
330
28A
100
AcDbEntity
  8
R-PIPE-AIR
  6
Continuous
 62
    60
370
     0
100
AcDbCircle
 10
-0.0004999998855055
 20
-0.0004999969969504
 30
0.0
 40
12.70000000000073
  0
CIRCLE
  5
28F
330
28A
100
AcDbEntity
  8
R-PIPE-AIR
  6
Continuous
 62
    60
370
     0
100
AcDbCircle
 10
-0.0004999998855055
 20
-0.0004999969969504
 30
0.0
 40
32.70000000000073
  0
ENDBLK
  5
28C
330
28A
100
AcDbEntity
  8
0
100
AcDbBlockEnd
  0
BLOCK
  5
291
330
290
100
AcDbEntity
  8
0
100
AcDbBlockBegin
  2
INS68_227059046077102247140068
 70
     0
 71
     0
 10
0.0
 20
0.0
 30
0.0
  3
INS68_227059046077102247140068
  1

  0
CIRCLE
  5
294
330
290
100
AcDbEntity
  8
R-PIPE-AIR
  6
Continuous
 62
    60
370
     0
100
AcDbCircle
 10
-0.0004999998855055
 20
-0.0004999969969504
 30
0.0
 40
34.29000000000087
  0
CIRCLE
  5
295
330
290
100
AcDbEntity
  8
R-PIPE-AIR
  6
Continuous
 62
    60
370
     0
100
AcDbCircle
 10
-0.0004999998855055
 20
-0.0004999969969504
 30
0.0
 40
14.29
  0
ENDBLK
  5
292
330
290
100
AcDbEntity
  8
0
100
AcDbBlockEnd
  0
BLOCK
  5
297
330
296
100
AcDbEntity
  8
0
100
AcDbBlockBegin
  2
INS69_227059046078102247140068
 70
     0
 71
     0
 10
0.0
 20
0.0
 30
0.0
  3
INS69_227059046078102247140068
  1

  0
CIRCLE
  5
29A
330
296
100
AcDbEntity
  8
R-PIPE-AIR
  6
Continuous
 62
    60
370
     0
100
AcDbCircle
 10
-0.0004999998855055
 20
-0.0004999969969504
 30
0.0
 40
15.875
  0
CIRCLE
  5
29B
330
296
100
AcDbEntity
  8
R-PIPE-AIR
  6
Continuous
 62
    60
370
     0
100
AcDbCircle
 10
-0.0004999998855055
 20
-0.0004999969969504
 30
0.0
 40
35.875
  0
ENDBLK
  5
298
330
296
100
AcDbEntity
  8
0
100
AcDbBlockEnd
  0
BLOCK
  5
29D
330
29C
100
AcDbEntity
  8
0
100
AcDbBlockBegin
  2
INS70_227059046079102247140068
 70
     0
 71
     0
 10
0.0
 20
0.0
 30
0.0
  3
INS70_227059046079102247140068
  1

  0
CIRCLE
  5
2A0
330
29C
100
AcDbEntity
  8
R-PIPE-AIR
  6
Continuous
 62
    60
370
     0
100
AcDbCircle
 10
-0.0004999998855055
 20
-0.0004999969969504
 30
0.0
 40
17.45999999999913
  0
CIRCLE
  5
2A1
330
29C
100
AcDbEntity
  8
R-PIPE-AIR
  6
Continuous
 62
    60
370
     0
100
AcDbCircle
 10
-0.0004999998855055
 20
-0.0004999969969504
 30
0.0
 40
37.45999999999913
  0
ENDBLK
  5
29E
330
29C
100
AcDbEntity
  8
0
100
AcDbBlockEnd
  0
BLOCK
  5
2A3
330
2A2
100
AcDbEntity
  8
0
100
AcDbBlockBegin
  2
INS71_227059046080102247140068
 70
     0
 71
     0
 10
0.0
 20
0.0
 30
0.0
  3
INS71_227059046080102247140068
  1

  0
CIRCLE
  5
2A6
330
2A2
100
AcDbEntity
  8
R-PIPE-AIR
  6
Continuous
 62
    60
370
     0
100
AcDbCircle
 10
-0.0004999998927815
 20
-0.0004999969969504
 30
0.0
 40
19.04999999999927
  0
CIRCLE
  5
2A7
330
2A2
100
AcDbEntity
  8
R-PIPE-AIR
  6
Continuous
 62
    60
370
     0
100
AcDbCircle
 10
-0.0004999998927815
 20
-0.0004999969969504
 30
0.0
 40
39.04999999999927
  0
ENDBLK
  5
2A4
330
2A2
100
AcDbEntity
  8
0
100
AcDbBlockEnd
  0
BLOCK
  5
2A9
330
2A8
100
AcDbEntity
  8
0
100
AcDbBlockBegin
  2
INS72_227059046081102247140068
 70
     0
 71
     0
 10
0.0
 20
0.0
 30
0.0
  3
INS72_227059046081102247140068
  1

  0
CIRCLE
  5
2AC
330
2A8
100
AcDbEntity
  8
R-PIPE-AIR
  6
Continuous
 62
    60
370
     0
100
AcDbCircle
 10
-0.0004999998782296
 20
-0.0004999969969504
 30
0.0
 40
9.525000000001455
  0
CIRCLE
  5
2AD
330
2A8
100
AcDbEntity
  8
R-PIPE-AIR
  6
Continuous
 62
    60
370
     0
100
AcDbCircle
 10
-0.0004999998782296
 20
-0.0004999969969504
 30
0.0
 40
19.52500000000146
  0
ENDBLK
  5
2AA
330
2A8
100
AcDbEntity
  8
0
100
AcDbBlockEnd
  0
BLOCK
  5
2AF
330
2AE
100
AcDbEntity
  8
0
100
AcDbBlockBegin
  2
INS73_227059046082102247140068
 70
     0
 71
     0
 10
0.0
 20
0.0
 30
0.0
  3
INS73_227059046082102247140068
  1

  0
CIRCLE
  5
2B2
330
2AE
100
AcDbEntity
  8
R-PIPE-AIR
  6
Continuous
 62
    60
370
     0
100
AcDbCircle
 10
-0.0004999998782296
 20
-0.0004999969969504
 30
0.0
 40
9.525000000001455
  0
CIRCLE
  5
2B3
330
2AE
100
AcDbEntity
  8
R-PIPE-AIR
  6
Continuous
 62
    60
370
     0
100
AcDbCircle
 10
-0.0004999998782296
 20
-0.0004999969969504
 30
0.0
 40
19.52500000000146
  0
ENDBLK
  5
2B0
330
2AE
100
AcDbEntity
  8
0
100
AcDbBlockEnd
  0
BLOCK
  5
2B5
330
2B4
100
AcDbEntity
  8
0
100
AcDbBlockBegin
  2
INS74_227059046083102247140068
 70
     0
 71
     0
 10
0.0
 20
0.0
 30
0.0
  3
INS74_227059046083102247140068
  1

  0
CIRCLE
  5
2B8
330
2B4
100
AcDbEntity
  8
R-PIPE-AIR
  6
Continuous
 62
    60
370
     0
100
AcDbCircle
 10
-0.0004999998855055
 20
-0.0004999969969504
 30
0.0
 40
9.525000000001455
  0
CIRCLE
  5
2B9
330
2B4
100
AcDbEntity
  8
R-PIPE-AIR
  6
Continuous
 62
    60
370
     0
100
AcDbCircle
 10
-0.0004999998855055
 20
-0.0004999969969504
 30
0.0
 40
19.52500000000146
  0
ENDBLK
  5
2B6
330
2B4
100
AcDbEntity
  8
0
100
AcDbBlockEnd
  0
BLOCK
  5
2BB
330
2BA
100
AcDbEntity
  8
0
100
AcDbBlockBegin
  2
INS75_227059046084102247140068
 70
     0
 71
     0
 10
0.0
 20
0.0
 30
0.0
  3
INS75_227059046084102247140068
  1

  0
CIRCLE
  5
2BE
330
2BA
100
AcDbEntity
  8
R-PIPE-AIR
  6
Continuous
 62
    60
370
     0
100
AcDbCircle
 10
-0.0004999998782296
 20
-0.0004999969969504
 30
0.0
 40
9.525000000001455
  0
CIRCLE
  5
2BF
330
2BA
100
AcDbEntity
  8
R-PIPE-AIR
  6
Continuous
 62
    60
370
     0
100
AcDbCircle
 10
-0.0004999998782296
 20
-0.0004999969969504
 30
0.0
 40
19.52500000000146
  0
ENDBLK
  5
2BC
330
2BA
100
AcDbEntity
  8
0
100
AcDbBlockEnd
  0
BLOCK
  5
2C1
330
2C0
100
AcDbEntity
  8
0
100
AcDbBlockBegin
  2
INS76_227059046085102247140068
 70
     0
 71
     0
 10
0.0
 20
0.0
 30
0.0
  3
INS76_227059046085102247140068
  1

  0
CIRCLE
  5
2C4
330
2C0
100
AcDbEntity
  8
R-PIPE-AIR
  6
Continuous
 62
    60
370
     0
100
AcDbCircle
 10
-0.0004999998855055
 20
-0.0004999969969504
 30
0.0
 40
9.525000000001455
  0
CIRCLE
  5
2C5
330
2C0
100
AcDbEntity
  8
R-PIPE-AIR
  6
Continuous
 62
    60
370
     0
100
AcDbCircle
 10
-0.0004999998855055
 20
-0.0004999969969504
 30
0.0
 40
19.52500000000146
  0
ENDBLK
  5
2C2
330
2C0
100
AcDbEntity
  8
0
100
AcDbBlockEnd
  0
BLOCK
  5
2C7
330
2C6
100
AcDbEntity
  8
0
100
AcDbBlockBegin
  2
INS77_227059046086102247140068
 70
     0
 71
     0
 10
0.0
 20
0.0
 30
0.0
  3
INS77_227059046086102247140068
  1

  0
CIRCLE
  5
2CA
330
2C6
100
AcDbEntity
  8
R-PIPE-AIR
  6
Continuous
 62
    60
370
     0
100
AcDbCircle
 10
-0.0004999998855055
 20
-0.0004999969969504
 30
0.0
 40
9.525000000001455
  0
CIRCLE
  5
2CB
330
2C6
100
AcDbEntity
  8
R-PIPE-AIR
  6
Continuous
 62
    60
370
     0
100
AcDbCircle
 10
-0.0004999998855055
 20
-0.0004999969969504
 30
0.0
 40
19.52500000000146
  0
ENDBLK
  5
2C8
330
2C6
100
AcDbEntity
  8
0
100
AcDbBlockEnd
  0
ENDSEC
  0
SECTION
  2
ENTITIES
  0
TEXT
  5
2F
330
1F
100
AcDbEntity
  8
空調文字
  6
Continuous
 62
    41
370
     9
100
AcDbText
 10
5890.567000002943
 20
8195.518000003372
 30
0.0
 40
127.5
  1
記号
 41
0.9058823529411765
  7
STYLE1
 72
     1
 11
6040.948000002943
 21
8259.268000003372
 31
0.0
100
AcDbText
 73
     2
  0
CIRCLE
  5
30
330
1F
100
AcDbEntity
  8
空調文字
  6
Continuous
 62
    41
370
     9
100
AcDbCircle
 10
6040.947999999858
 20
7521.767999999691
 30
0.0
 40
100.0
  0
LINE
  5
32
330
1F
100
AcDbEntity
  8
罫線
  6
Continuous
 62
    41
370
     9
100
AcDbLine
 10
6290.947999999858
 20
8396.767999999691
 30
0.0
 11
6290.947999999858
 21
1646.767999999691
 31
0.0
  0
LINE
  5
33
330
1F
100
AcDbEntity
  8
罫線
  6
Continuous
 62
    41
370
     9
100
AcDbLine
 10
5290.947999999858
 20
6896.767999999691
 30
0.0
 11
9290.947999999858
 21
6896.767999999691
 31
0.0
  0
LINE
  5
34
330
1F
100
AcDbEntity
  8
罫線
  6
Continuous
 62
    41
370
     9
100
AcDbLine
 10
5290.947999999858
 20
7896.767999999691
 30
0.0
 11
9290.947999999858
 21
7896.767999999691
 31
0.0
  0
LINE
  5
35
330
1F
100
AcDbEntity
  8
罫線
  6
Continuous
 62
    41
370
     9
100
AcDbLine
 10
7290.947999999858
 20
8396.767999999691
 30
0.0
 11
7290.947999999858
 21
1646.767999999691
 31
0.0
  0
LINE
  5
36
330
1F
100
AcDbEntity
  8
罫線
  6
Continuous
 62
    41
370
     9
100
AcDbLine
 10
5290.947999999858
 20
7396.767999999691
 30
0.0
 11
9290.947999999858
 21
7396.767999999691
 31
0.0
  0
LINE
  5
37
330
1F
100
AcDbEntity
  8
罫線
  6
Continuous
 62
    41
370
     9
100
AcDbLine
 10
5790.947999999858
 20
8396.767999999691
 30
0.0
 11
5790.947999999858
 21
1646.767999999691
 31
0.0
  0
CIRCLE
  5
38
330
1F
100
AcDbEntity
  8
空調文字
  6
Continuous
 62
    41
370
     9
100
AcDbCircle
 10
6040.947999999858
 20
7271.767999999691
 30
0.0
 40
100.0
  0
LINE
  5
39
330
1F
100
AcDbEntity
  8
罫線
  6
Continuous
 62
    41
370
     9
100
AcDbLine
 10
8290.947999999858
 20
8396.767999999691
 30
0.0
 11
8290.947999999858
 21
1646.767999999691
 31
0.0
  0
LINE
  5
3A
330
1F
100
AcDbEntity
  8
罫線
  6
Continuous
 62
    41
370
     9
100
AcDbLine
 10
5290.947999999858
 20
8396.767999999691
 30
0.0
 11
9290.947999999858
 21
8396.767999999691
 31
0.0
  0
CIRCLE
  5
3B
330
1F
100
AcDbEntity
  8
空調文字
  6
Continuous
 62
    41
370
     9
100
AcDbCircle
 10
6040.947999999858
 20
7771.767999999691
 30
0.0
 40
100.0
  0
POINT
  5
3C
330
1F
100
AcDbEntity
  8
罫線
  6
Continuous
 62
    41
370
     0
100
AcDbPoint
 10
5790.947999999858
 20
8396.767999999691
 30
0.0
  0
LINE
  5
3D
330
1F
100
AcDbEntity
  8
罫線
  6
Continuous
 62
    41
370
     9
100
AcDbLine
 10
5290.947999999858
 20
7646.767999999691
 30
0.0
 11
9290.947999999858
 21
7646.767999999691
 31
0.0
  0
LINE
  5
3E
330
1F
100
AcDbEntity
  8
罫線
  6
Continuous
 62
    41
370
     9
100
AcDbLine
 10
5290.947999999858
 20
7146.767999999691
 30
0.0
 11
9290.947999999858
 21
7146.767999999691
 31
0.0
  0
LINE
  5
3F
330
1F
100
AcDbEntity
  8
罫線
  6
Continuous
 62
    41
370
     9
100
AcDbLine
 10
5290.947999999858
 20
8146.767999999691
 30
0.0
 11
9290.947999999858
 21
8146.767999999691
 31
0.0
  0
CIRCLE
  5
40
330
1F
100
AcDbEntity
  8
空調文字
  6
Continuous
 62
    41
370
     9
100
AcDbCircle
 10
6040.947999999858
 20
7021.767999999691
 30
0.0
 40
100.0
  0
CIRCLE
  5
41
330
1F
100
AcDbEntity
  8
空調文字
  6
Continuous
 62
    41
370
     9
100
AcDbCircle
 10
6040.947999999858
 20
8021.767999999691
 30
0.0
 40
100.0
  0
TEXT
  5
42
330
1F
100
AcDbEntity
  8
空調文字
  6
Continuous
 62
    41
370
     9
100
AcDbText
 10
6561.969250006508
 20
8195.517999996016
 30
0.0
 40
127.5
  1
ガス管
 41
0.9058823529411765
  7
STYLE1
 72
     1
 11
6790.948000006509
 21
8259.267999996016
 31
0.0
100
AcDbText
 73
     2
  0
TEXT
  5
43
330
1F
100
AcDbEntity
  8
空調文字
  6
Continuous
 62
    41
370
     9
100
AcDbText
 10
6002.833000006538
 20
7208.018000008058
 30
0.0
 40
127.5
  1
D
 41
0.9058823529411765
  7
STYLE1
 72
     1
 11
6040.948000006538
 21
7271.768000008058
 31
0.0
100
AcDbText
 73
     2
  0
TEXT
  5
44
330
1F
100
AcDbEntity
  8
空調文字
  6
Continuous
 62
    41
370
     9
100
AcDbText
 10
6002.255499998869
 20
6958.018000004136
 30
0.0
 40
127.5
  1
E
 41
0.9058823529411765
  7
STYLE1
 72
     1
 11
6040.947999998869
 21
7021.768000004136
 31
0.0
100
AcDbText
 73
     2
  0
TEXT
  5
45
330
1F
100
AcDbEntity
  8
空調文字
  6
Continuous
 62
    41
370
     9
100
AcDbText
 10
6002.832999973905
 20
7458.018000000855
 30
0.0
 40
127.5
  1
C
 41
0.9058823529411765
  7
STYLE1
 72
     1
 11
6040.947999973905
 21
7521.768000000855
 31
0.0
100
AcDbText
 73
     2
  0
TEXT
  5
46
330
1F
100
AcDbEntity
  8
空調文字
  6
Continuous
 62
    41
370
     9
100
AcDbText
 10
6002.544250014395
 20
7708.01800000111
 30
0.0
 40
127.5
  1
B
 41
0.9058823529411765
  7
STYLE1
 72
     1
 11
6040.948000014396
 21
7771.76800000111
 31
0.0
100
AcDbText
 73
     2
  0
TEXT
  5
47
330
1F
100
AcDbEntity
  8
空調文字
  6
Continuous
 62
    41
370
     9
100
AcDbText
 10
5290.947999994663
 20
8470.058664059026
 30
0.0
 40
127.5
  1
冷媒管サイズ　２管式（保温厚　ガス管20mm 液管10mm）
 41
0.9058823529411765
  7
STYLE1
 11
5290.947999994663
 21
8446.767999996526
 31
0.0
100
AcDbText
 73
     1
  0
TEXT
  5
48
330
1F
100
AcDbEntity
  8
空調文字
  6
Continuous
 62
    41
370
     9
100
AcDbText
 10
6003.468249998796
 20
7958.018000001175
 30
0.0
 40
127.5
  1
A
 41
0.9058823529411765
  7
STYLE1
 72
     1
 11
6040.947999998796
 21
8021.768000001175
 31
0.0
100
AcDbText
 73
     2
  0
TEXT
  5
49
330
1F
100
AcDbEntity
  8
空調文字
  6
Continuous
 62
    41
370
     9
100
AcDbText
 10
6002.544250021555
 20
6708.018000008073
 30
0.0
 40
127.5
  1
F
 41
0.9058823529411765
  7
STYLE1
 72
     1
 11
6040.948000021555
 21
6771.768000008073
 31
0.0
100
AcDbText
 73
     2
  0
CIRCLE
  5
4A
330
1F
100
AcDbEntity
  8
空調文字
  6
Continuous
 62
    41
370
     9
100
AcDbCircle
 10
6040.947999999858
 20
6771.767999999691
 30
0.0
 40
100.0
  0
LINE
  5
4B
330
1F
100
AcDbEntity
  8
罫線
  6
Continuous
 62
    41
370
     9
100
AcDbLine
 10
5290.947999999858
 20
6646.767999999691
 30
0.0
 11
9290.947999999858
 21
6646.767999999691
 31
0.0
  0
CIRCLE
  5
4C
330
1F
100
AcDbEntity
  8
空調文字
  6
Continuous
 62
    41
370
     9
100
AcDbCircle
 10
6040.947999999858
 20
6521.767999999691
 30
0.0
 40
100.0
  0
TEXT
  5
4D
330
1F
100
AcDbEntity
  8
空調文字
  6
Continuous
 62
    41
370
     9
100
AcDbText
 10
6004.276749999363
 20
6458.018000005912
 30
0.0
 40
127.5
  1
G
 41
0.9058823529411765
  7
STYLE1
 72
     1
 11
6040.947999999364
 21
6521.768000005912
 31
0.0
100
AcDbText
 73
     2
  0
LINE
  5
4E
330
1F
100
AcDbEntity
  8
罫線
  6
Continuous
 62
    41
370
     9
100
AcDbLine
 10
5290.947999999858
 20
6396.767999999691
 30
0.0
 11
9290.947999999858
 21
6396.767999999691
 31
0.0
  0
CIRCLE
  5
4F
330
1F
100
AcDbEntity
  8
空調文字
  6
Continuous
 62
    41
370
     9
100
AcDbCircle
 10
6040.947999999858
 20
6271.767999999691
 30
0.0
 40
100.0
  0
TEXT
  5
50
330
1F
100
AcDbEntity
  8
空調文字
  6
Continuous
 62
    41
370
     9
100
AcDbText
 10
6003.699250007324
 20
6208.017999997705
 30
0.0
 40
127.5
  1
H
 41
0.9058823529411765
  7
STYLE1
 72
     1
 11
6040.948000007324
 21
6271.767999997705
 31
0.0
100
AcDbText
 73
     2
  0
LINE
  5
51
330
1F
100
AcDbEntity
  8
罫線
  6
Continuous
 62
    41
370
     9
100
AcDbLine
 10
5290.947999999858
 20
6146.767999999691
 30
0.0
 11
9290.947999999858
 21
6146.767999999691
 31
0.0
  0
TEXT
  5
52
330
1F
100
AcDbEntity
  8
空調文字
  6
Continuous
 62
    41
370
     9
100
AcDbText
 10
7642.01074999478
 20
8195.517999997195
 30
0.0
 40
127.5
  1
液管
 41
0.9058823529411765
  7
STYLE1
 72
     1
 11
7790.94799999478
 21
8259.267999997195
 31
0.0
100
AcDbText
 73
     2
  0
LINE
  5
53
330
1F
100
AcDbEntity
  8
罫線
  6
Continuous
 62
    41
370
     9
100
AcDbLine
 10
9290.947999999858
 20
8396.767999999691
 30
0.0
 11
9290.947999999858
 21
1646.767999999691
 31
0.0
  0
TEXT
  5
54
330
1F
100
AcDbEntity
  8
空調文字
  6
Continuous
 62
    41
370
     9
100
AcDbText
 10
6622.881000007743
 20
7708.017999997959
 30
0.0
 40
127.5
  1
12.7
 41
0.9058823529411765
  7
STYLE1
 11
6622.881000007743
 21
7771.767999997959
 31
0.0
100
AcDbText
 73
     2
  0
TEXT
  5
55
330
1F
100
AcDbEntity
  8
空調文字
  6
Continuous
 62
    41
370
     9
100
AcDbText
 10
7622.881000003676
 20
7708.018000002587
 30
0.0
 40
127.5
  1
 6.35
 41
0.9058823529411765
  7
STYLE1
 11
7622.881000003676
 21
7771.768000002587
 31
0.0
100
AcDbText
 73
     2
  0
TEXT
  5
56
330
1F
100
AcDbEntity
  8
空調文字
  6
Continuous
 62
    41
370
     9
100
AcDbText
 10
6622.88100000834
 20
6958.018000004493
 30
0.0
 40
127.5
  1
15.88
 41
0.9058823529411765
  7
STYLE1
 11
6622.88100000834
 21
7021.768000004493
 31
0.0
100
AcDbText
 73
     2
  0
TEXT
  5
57
330
1F
100
AcDbEntity
  8
空調文字
  6
Continuous
 62
    41
370
     9
100
AcDbText
 10
7622.880999997862
 20
6958.017999999065
 30
0.0
 40
127.5
  1
 9.52
 41
0.9058823529411765
  7
STYLE1
 11
7622.880999997862
 21
7021.767999999065
 31
0.0
100
AcDbText
 73
     2
  0
TEXT
  5
58
330
1F
100
AcDbEntity
  8
空調文字
  6
Continuous
 62
    41
370
     9
100
AcDbText
 10
6622.881000003814
 20
6708.018000002106
 30
0.0
 40
127.5
  1
19.05
 41
0.9058823529411765
  7
STYLE1
 11
6622.881000003814
 21
6771.768000002106
 31
0.0
100
AcDbText
 73
     2
  0
TEXT
  5
59
330
1F
100
AcDbEntity
  8
空調文字
  6
Continuous
 62
    41
370
     9
100
AcDbText
 10
7622.880999991015
 20
6708.017999994961
 30
0.0
 40
127.5
  1
 9.52
 41
0.9058823529411765
  7
STYLE1
 11
7622.880999991015
 21
6771.767999994961
 31
0.0
100
AcDbText
 73
     2
  0
TEXT
  5
5A
330
1F
100
AcDbEntity
  8
空調文字
  6
Continuous
 62
    41
370
     9
100
AcDbText
 10
6622.880999997295
 20
6458.017999993877
 30
0.0
 40
127.5
  1
22.22
 41
0.9058823529411765
  7
STYLE1
 11
6622.880999997295
 21
6521.767999993877
 31
0.0
100
AcDbText
 73
     2
  0
TEXT
  5
5B
330
1F
100
AcDbEntity
  8
空調文字
  6
Continuous
 62
    41
370
     9
100
AcDbText
 10
7622.880999996734
 20
6458.017999997537
 30
0.0
 40
127.5
  1
 9.52
 41
0.9058823529411765
  7
STYLE1
 11
7622.880999996734
 21
6521.767999997537
 31
0.0
100
AcDbText
 73
     2
  0
LINE
  5
5C
330
1F
100
AcDbEntity
  8
罫線
  6
Continuous
 62
    41
370
     9
100
AcDbLine
 10
5290.947999999858
 20
5896.767999999691
 30
0.0
 11
9290.947999999858
 21
5896.767999999691
 31
0.0
  0
CIRCLE
  5
5D
330
1F
100
AcDbEntity
  8
空調文字
  6
Continuous
 62
    41
370
     9
100
AcDbCircle
 10
6040.947999999858
 20
6021.767999999691
 30
0.0
 40
100.0
  0
TEXT
  5
5E
330
1F
100
AcDbEntity
  8
空調文字
  6
Continuous
 62
    41
370
     9
100
AcDbText
 10
6003.699250009703
 20
5958.017999999676
 30
0.0
 40
127.5
  1
I
 41
0.9058823529411765
  7
STYLE1
 72
     1
 11
6040.948000009703
 21
6021.767999999676
 31
0.0
100
AcDbText
 73
     2
  0
TEXT
  5
5F
330
1F
100
AcDbEntity
  8
空調文字
  6
Continuous
 62
    41
370
     9
100
AcDbText
 10
6622.881000004134
 20
5458.018000003562
 30
0.0
 40
127.5
  1
25.4
 41
0.9058823529411765
  7
STYLE1
 11
6622.881000004134
 21
5521.768000003562
 31
0.0
100
AcDbText
 73
     2
  0
TEXT
  5
60
330
1F
100
AcDbEntity
  8
空調文字
  6
Continuous
 62
    41
370
     9
100
AcDbText
 10
7622.881000003094
 20
6208.0179999998
 30
0.0
 40
127.5
  1
12.7
 41
0.9058823529411765
  7
STYLE1
 11
7622.881000003094
 21
6271.7679999998
 31
0.0
100
AcDbText
 73
     2
  0
LINE
  5
61
330
1F
100
AcDbEntity
  8
罫線
  6
Continuous
 62
    41
370
     9
100
AcDbLine
 10
5290.947999999858
 20
4896.767999999691
 30
0.0
 11
9290.947999999858
 21
4896.767999999691
 31
0.0
  0
LINE
  5
62
330
1F
100
AcDbEntity
  8
罫線
  6
Continuous
 62
    41
370
     9
100
AcDbLine
 10
5290.947999999858
 20
5396.767999999691
 30
0.0
 11
9290.947999999858
 21
5396.767999999691
 31
0.0
  0
LINE
  5
63
330
1F
100
AcDbEntity
  8
罫線
  6
Continuous
 62
    41
370
     9
100
AcDbLine
 10
5290.947999999858
 20
5646.767999999691
 30
0.0
 11
9290.947999999858
 21
5646.767999999691
 31
0.0
  0
LINE
  5
64
330
1F
100
AcDbEntity
  8
罫線
  6
Continuous
 62
    41
370
     9
100
AcDbLine
 10
5290.947999999858
 20
5146.767999999691
 30
0.0
 11
9290.947999999858
 21
5146.767999999691
 31
0.0
  0
LINE
  5
65
330
1F
100
AcDbEntity
  8
罫線
  6
Continuous
 62
    41
370
     9
100
AcDbLine
 10
5290.947999999858
 20
4646.767999999691
 30
0.0
 11
9290.947999999858
 21
4646.767999999691
 31
0.0
  0
LINE
  5
66
330
1F
100
AcDbEntity
  8
罫線
  6
Continuous
 62
    41
370
     9
100
AcDbLine
 10
5290.947999999858
 20
4396.767999999691
 30
0.0
 11
9290.947999999858
 21
4396.767999999691
 31
0.0
  0
LINE
  5
67
330
1F
100
AcDbEntity
  8
罫線
  6
Continuous
 62
    41
370
     9
100
AcDbLine
 10
5290.947999999858
 20
4146.767999999691
 30
0.0
 11
9290.947999999858
 21
4146.767999999691
 31
0.0
  0
LINE
  5
68
330
1F
100
AcDbEntity
  8
罫線
  6
Continuous
 62
    41
370
     9
100
AcDbLine
 10
5290.947999999858
 20
3896.767999999691
 30
0.0
 11
9290.947999999858
 21
3896.767999999691
 31
0.0
  0
LINE
  5
69
330
1F
100
AcDbEntity
  8
罫線
  6
Continuous
 62
    41
370
     9
100
AcDbLine
 10
5290.947999999858
 20
3146.767999999691
 30
0.0
 11
9290.947999999858
 21
3146.767999999691
 31
0.0
  0
LINE
  5
6A
330
1F
100
AcDbEntity
  8
罫線
  6
Continuous
 62
    41
370
     9
100
AcDbLine
 10
5290.947999999858
 20
3396.767999999691
 30
0.0
 11
9290.947999999858
 21
3396.767999999691
 31
0.0
  0
LINE
  5
6B
330
1F
100
AcDbEntity
  8
罫線
  6
Continuous
 62
    41
370
     9
100
AcDbLine
 10
5290.947999999858
 20
2896.767999999691
 30
0.0
 11
9290.947999999858
 21
2896.767999999691
 31
0.0
  0
TEXT
  5
6C
330
1F
100
AcDbEntity
  8
空調文字
  6
Continuous
 62
    41
370
     9
100
AcDbText
 10
7622.881000005458
 20
4708.017999998752
 30
0.0
 40
127.5
  1
15.88
 41
0.9058823529411765
  7
STYLE1
 11
7622.881000005458
 21
4771.767999998752
 31
0.0
100
AcDbText
 73
     2
  0
TEXT
  5
6D
330
1F
100
AcDbEntity
  8
空調文字
  6
Continuous
 62
    41
370
     9
100
AcDbText
 10
6622.880999998328
 20
7208.017999999589
 30
0.0
 40
127.5
  1
12.7
 41
0.9058823529411765
  7
STYLE1
 11
6622.880999998328
 21
7271.767999999589
 31
0.0
100
AcDbText
 73
     2
  0
TEXT
  5
6E
330
1F
100
AcDbEntity
  8
空調文字
  6
Continuous
 62
    41
370
     9
100
AcDbText
 10
7622.880999993671
 20
7208.017999999334
 30
0.0
 40
127.5
  1
 9.52
 41
0.9058823529411765
  7
STYLE1
 11
7622.880999993671
 21
7271.767999999334
 31
0.0
100
AcDbText
 73
     2
  0
TEXT
  5
6F
330
1F
100
AcDbEntity
  8
空調文字
  6
Continuous
 62
    41
370
     9
100
AcDbText
 10
6622.880999993839
 20
5208.017999998709
 30
0.0
 40
127.5
  1
28.58
 41
0.9058823529411765
  7
STYLE1
 11
6622.880999993839
 21
5271.767999998709
 31
0.0
100
AcDbText
 73
     2
  0
TEXT
  5
70
330
1F
100
AcDbEntity
  8
空調文字
  6
Continuous
 62
    41
370
     9
100
AcDbText
 10
7622.880999994035
 20
5958.017999998236
 30
0.0
 40
127.5
  1
12.7
 41
0.9058823529411765
  7
STYLE1
 11
7622.880999994035
 21
6021.767999998236
 31
0.0
100
AcDbText
 73
     2
  0
CIRCLE
  5
71
330
1F
100
AcDbEntity
  8
空調文字
  6
Continuous
 62
    41
370
     9
100
AcDbCircle
 10
6040.947999999858
 20
5771.767999999691
 30
0.0
 40
100.0
  0
TEXT
  5
72
330
1F
100
AcDbEntity
  8
空調文字
  6
Continuous
 62
    41
370
     9
100
AcDbText
 10
6003.757000013814
 20
5708.017999987467
 30
0.0
 40
127.5
  1
J
 41
0.9058823529411765
  7
STYLE1
 72
     1
 11
6040.948000013814
 21
5771.767999987467
 31
0.0
100
AcDbText
 73
     2
  0
CIRCLE
  5
73
330
1F
100
AcDbEntity
  8
空調文字
  6
Continuous
 62
    41
370
     9
100
AcDbCircle
 10
6040.947999999858
 20
5521.767999999691
 30
0.0
 40
100.0
  0
TEXT
  5
74
330
1F
100
AcDbEntity
  8
空調文字
  6
Continuous
 62
    41
370
     9
100
AcDbText
 10
6001.389250010307
 20
5458.018000004755
 30
0.0
 40
127.5
  1
K
 41
0.9058823529411765
  7
STYLE1
 72
     1
 11
6040.948000010307
 21
5521.768000004755
 31
0.0
100
AcDbText
 73
     2
  0
CIRCLE
  5
75
330
1F
100
AcDbEntity
  8
空調文字
  6
Continuous
 62
    41
370
     9
100
AcDbCircle
 10
6040.947999999858
 20
5271.767999999691
 30
0.0
 40
100.0
  0
TEXT
  5
76
330
1F
100
AcDbEntity
  8
空調文字
  6
Continuous
 62
    41
370
     9
100
AcDbText
 10
6002.833000016259
 20
5208.018000001321
 30
0.0
 40
127.5
  1
L
 41
0.9058823529411765
  7
STYLE1
 72
     1
 11
6040.948000016258
 21
5271.768000001321
 31
0.0
100
AcDbText
 73
     2
  0
CIRCLE
  5
77
330
1F
100
AcDbEntity
  8
空調文字
  6
Continuous
 62
    41
370
     9
100
AcDbCircle
 10
6040.947999999858
 20
5021.767999999691
 30
0.0
 40
100.0
  0
TEXT
  5
78
330
1F
100
AcDbEntity
  8
空調文字
  6
Continuous
 62
    41
370
     9
100
AcDbText
 10
6003.410500014243
 20
4958.018000002092
 30
0.0
 40
127.5
  1
M
 41
0.9058823529411765
  7
STYLE1
 72
     1
 11
6040.948000014243
 21
5021.768000002092
 31
0.0
100
AcDbText
 73
     2
  0
CIRCLE
  5
79
330
1F
100
AcDbEntity
  8
空調文字
  6
Continuous
 62
    41
370
     9
100
AcDbCircle
 10
6040.947999999858
 20
4771.767999999691
 30
0.0
 40
100.0
  0
TEXT
  5
7A
330
1F
100
AcDbEntity
  8
空調文字
  6
Continuous
 62
    41
370
     9
100
AcDbText
 10
6003.988000003074
 20
4708.018000001684
 30
0.0
 40
127.5
  1
N
 41
0.9058823529411765
  7
STYLE1
 72
     1
 11
6040.948000003074
 21
4771.768000001684
 31
0.0
100
AcDbText
 73
     2
  0
CIRCLE
  5
7B
330
1F
100
AcDbEntity
  8
空調文字
  6
Continuous
 62
    41
370
     9
100
AcDbCircle
 10
6040.947999999858
 20
4521.767999999691
 30
0.0
 40
100.0
  0
TEXT
  5
7C
330
1F
100
AcDbEntity
  8
空調文字
  6
Continuous
 62
    41
370
     9
100
AcDbText
 10
6003.699250014847
 20
4458.017999996941
 30
0.0
 40
127.5
  1
O
 41
0.9058823529411765
  7
STYLE1
 72
     1
 11
6040.948000014847
 21
4521.767999996941
 31
0.0
100
AcDbText
 73
     2
  0
CIRCLE
  5
7D
330
1F
100
AcDbEntity
  8
空調文字
  6
Continuous
 62
    41
370
     9
100
AcDbCircle
 10
6040.947999999858
 20
4271.767999999691
 30
0.0
 40
100.0
  0
TEXT
  5
7E
330
1F
100
AcDbEntity
  8
空調文字
  6
Continuous
 62
    41
370
     9
100
AcDbText
 10
6001.966750014643
 20
4208.017999993332
 30
0.0
 40
127.5
  1
P
 41
0.9058823529411765
  7
STYLE1
 72
     1
 11
6040.948000014643
 21
4271.767999993332
 31
0.0
100
AcDbText
 73
     2
  0
CIRCLE
  5
7F
330
1F
100
AcDbEntity
  8
空調文字
  6
Continuous
 62
    41
370
     9
100
AcDbCircle
 10
6040.947999999858
 20
4021.767999999691
 30
0.0
 40
100.0
  0
TEXT
  5
80
330
1F
100
AcDbEntity
  8
空調文字
  6
Continuous
 62
    41
370
     9
100
AcDbText
 10
6003.699250015036
 20
3958.018000003955
 30
0.0
 40
127.5
  1
Q
 41
0.9058823529411765
  7
STYLE1
 72
     1
 11
6040.948000015036
 21
4021.768000003955
 31
0.0
100
AcDbText
 73
     2
  0
CIRCLE
  5
81
330
1F
100
AcDbEntity
  8
空調文字
  6
Continuous
 62
    41
370
     9
100
AcDbCircle
 10
6040.947999999858
 20
3271.767999999691
 30
0.0
 40
100.0
  0
TEXT
  5
82
330
1F
100
AcDbEntity
  8
空調文字
  6
Continuous
 62
    41
370
     9
100
AcDbText
 10
6003.69925001655
 20
3208.018000000229
 30
0.0
 40
127.5
  1
T
 41
0.9058823529411765
  7
STYLE1
 72
     1
 11
6040.94800001655
 21
3271.768000000229
 31
0.0
100
AcDbText
 73
     2
  0
CIRCLE
  5
83
330
1F
100
AcDbEntity
  8
空調文字
  6
Continuous
 62
    41
370
     9
100
AcDbCircle
 10
6040.947999999858
 20
3771.767999999691
 30
0.0
 40
100.0
  0
TEXT
  5
84
330
1F
100
AcDbEntity
  8
空調文字
  6
Continuous
 62
    41
370
     9
100
AcDbText
 10
6001.966750006174
 20
3708.018000000004
 30
0.0
 40
127.5
  1
R
 41
0.9058823529411765
  7
STYLE1
 72
     1
 11
6040.948000006174
 21
3771.768000000004
 31
0.0
100
AcDbText
 73
     2
  0
CIRCLE
  5
85
330
1F
100
AcDbEntity
  8
空調文字
  6
Continuous
 62
    41
370
     9
100
AcDbCircle
 10
6040.947999999858
 20
3521.767999999691
 30
0.0
 40
100.0
  0
TEXT
  5
86
330
1F
100
AcDbEntity
  8
空調文字
  6
Continuous
 62
    41
370
     9
100
AcDbText
 10
6003.69925001572
 20
3458.017999996686
 30
0.0
 40
127.5
  1
S
 41
0.9058823529411765
  7
STYLE1
 72
     1
 11
6040.94800001572
 21
3521.767999996686
 31
0.0
100
AcDbText
 73
     2
  0
INSERT
  5
8B
330
1F
100
AcDbEntity
  8
スリーブ
  6
Continuous
 62
    60
370
     9
100
AcDbBlockReference
  2
SGP_0_055059046156102247140068
 10
5540.947999999858
 20
6771.767999999691
 30
0.0
  0
INSERT
  5
93
330
1F
100
AcDbEntity
  8
スリーブ
  6
Continuous
 62
    60
370
     0
100
AcDbBlockReference
  2
SGP_1_055059046157102247140068
 10
5540.947999999858
 20
6521.768000002732
 30
0.0
  0
CIRCLE
  5
97
330
1F
100
AcDbEntity
  8
空調文字
  6
Continuous
 62
    41
370
     9
100
AcDbCircle
 10
6040.947999999858
 20
3021.767999999691
 30
0.0
 40
100.0
  0
TEXT
  5
98
330
1F
100
AcDbEntity
  8
空調文字
  6
Continuous
 62
    41
370
     9
100
AcDbText
 10
6003.69925000712
 20
2958.017999996198
 30
0.0
 40
127.5
  1
U
 41
0.9058823529411765
  7
STYLE1
 72
     1
 11
6040.94800000712
 21
3021.767999996198
 31
0.0
100
AcDbText
 73
     2
  0
TEXT
  5
99
330
1F
100
AcDbEntity
  8
空調文字
  6
Continuous
 62
    41
370
     9
100
AcDbText
 10
7622.880999996611
 20
2958.017999997734
 30
0.0
 40
127.5
  1
19.05
 41
0.9058823529411765
  7
STYLE1
 11
7622.880999996611
 21
3021.767999997734
 31
0.0
100
AcDbText
 73
     2
  0
INSERT
  5
9E
330
1F
100
AcDbEntity
  8
R-PIPE-AIR
  6
Continuous
 62
    60
370
     0
100
AcDbBlockReference
  2
INS2_055059046158102247140068
 10
5526.188499999742
 20
6521.768499999729
 30
0.0
  0
INSERT
  5
A4
330
1F
100
AcDbEntity
  8
R-PIPE-AIR
  6
Continuous
 62
    60
370
     0
100
AcDbBlockReference
  2
INS3_055059046159102247140068
 10
5526.188499999742
 20
6771.768499999729
 30
0.0
  0
INSERT
  5
AA
330
1F
100
AcDbEntity
  8
R-PIPE-AIR
  6
Continuous
 62
    60
370
     0
100
AcDbBlockReference
  2
INS4_055059046160102247140068
 10
5527.773499999734
 20
8021.768499999729
 30
0.0
  0
INSERT
  5
B0
330
1F
100
AcDbEntity
  8
スリーブ
  6
Continuous
 62
    60
370
     9
100
AcDbBlockReference
  2
SGP_5_055059046161102247140068
 10
5540.947999999858
 20
7021.768000001895
 30
0.0
  0
TEXT
  5
B4
330
1F
100
AcDbEntity
  8
空調文字
  6
Continuous
 62
    41
370
     9
100
AcDbText
 10
7622.881000000598
 20
7958.018000005737
 30
0.0
 40
127.5
  1
 6.35
 41
0.9058823529411765
  7
STYLE1
 11
7622.881000000598
 21
8021.768000005737
 31
0.0
100
AcDbText
 73
     2
  0
TEXT
  5
B5
330
1F
100
AcDbEntity
  8
空調文字
  6
Continuous
 62
    41
370
     9
100
AcDbText
 10
6622.88099999167
 20
7958.017999997712
 30
0.0
 40
127.5
  1
 9.52
 41
0.9058823529411765
  7
STYLE1
 11
6622.88099999167
 21
8021.767999997712
 31
0.0
100
AcDbText
 73
     2
  0
INSERT
  5
B9
330
1F
100
AcDbEntity
  8
スリーブ
  6
Continuous
 62
    60
370
     9
100
AcDbBlockReference
  2
SGP_6_071059046171102247140068
 10
5540.947999999858
 20
8021.767999999691
 30
0.0
  0
INSERT
  5
C0
330
1F
100
AcDbEntity
  8
R-PIPE-AIR
  6
Continuous
 62
    60
370
     0
100
AcDbBlockReference
  2
INS7_071059046172102247140068
 10
5565.708499999739
 20
8021.768499999729
 30
0.0
  0
INSERT
  5
C6
330
1F
100
AcDbEntity
  8
スリーブ
  6
Continuous
 62
    60
370
     9
100
AcDbBlockReference
  2
SGP_8_071059046173102247140068
 10
5540.947999999858
 20
7771.767999999356
 30
0.0
  0
INSERT
  5
CD
330
1F
100
AcDbEntity
  8
R-PIPE-AIR
  6
Continuous
 62
    60
370
     0
100
AcDbBlockReference
  2
INS9_071059046174102247140068
 10
5567.298499999743
 20
7771.767499999733
 30
0.0
  0
INSERT
  5
D3
330
1F
100
AcDbEntity
  8
R-PIPE-AIR
  6
Continuous
 62
    60
370
     0
100
AcDbBlockReference
  2
INS10_071059046175102247140068
 10
5527.773499999741
 20
7771.767499999733
 30
0.0
  0
INSERT
  5
D9
330
1F
100
AcDbEntity
  8
スリーブ
  6
Continuous
 62
    60
370
     9
100
AcDbBlockReference
  2
SGP_11_071059046176102247140068
 10
5540.947999999858
 20
7271.767999999356
 30
0.0
  0
INSERT
  5
E0
330
1F
100
AcDbEntity
  8
R-PIPE-AIR
  6
Continuous
 62
    60
370
     0
100
AcDbBlockReference
  2
INS12_071059046177102247140068
 10
5526.188499999742
 20
7271.767499999733
 30
0.0
  0
INSERT
  5
E6
330
1F
100
AcDbEntity
  8
R-PIPE-AIR
  6
Continuous
 62
    60
370
     0
100
AcDbBlockReference
  2
INS13_071059046178102247140068
 10
5567.298499999743
 20
7271.767499999725
 30
0.0
  0
LINE
  5
E9
330
1F
100
AcDbEntity
  8
罫線
  6
Continuous
 62
    41
370
     9
100
AcDbLine
 10
5290.947999999858
 20
8396.767999999691
 30
0.0
 11
5290.947999999858
 21
1646.767999999691
 31
0.0
  0
TEXT
  5
EA
330
1F
100
AcDbEntity
  8
空調文字
  6
Continuous
 62
    41
370
     9
100
AcDbText
 10
5465.93074999785
 20
8195.517999999014
 30
0.0
 40
127.5
  1
図
 41
0.9058823529411765
  7
STYLE1
 72
     1
 11
5540.94799999785
 21
8259.267999999014
 31
0.0
100
AcDbText
 73
     2
  0
TEXT
  5
EB
330
1F
100
AcDbEntity
  8
空調文字
  6
Continuous
 62
    41
370
     9
100
AcDbText
 10
8487.240749996468
 20
8195.517999999138
 30
0.0
 40
127.5
  1
スリーブ
 41
0.9058823529411765
  7
STYLE1
 72
     1
 11
8790.947999996468
 21
8259.267999999138
 31
0.0
100
AcDbText
 73
     2
  0
TEXT
  5
EC
330
1F
100
AcDbEntity
  8
空調文字
  6
Continuous
 62
    41
370
     9
100
AcDbText
 10
8611.518750001125
 20
7958.018000004835
 30
0.0
 40
127.5
  1
100φ
 41
0.9058823529411765
  7
STYLE1
 72
     1
 11
8790.948000001125
 21
8021.768000004835
 31
0.0
100
AcDbText
 73
     2
  0
TEXT
  5
ED
330
1F
100
AcDbEntity
  8
空調文字
  6
Continuous
 62
    41
370
     9
100
AcDbText
 10
8611.518750002857
 20
7708.018000007229
 30
0.0
 40
127.5
  1
100φ
 41
0.9058823529411765
  7
STYLE1
 72
     1
 11
8790.948000002856
 21
7771.768000007229
 31
0.0
100
AcDbText
 73
     2
  0
TEXT
  5
EE
330
1F
100
AcDbEntity
  8
空調文字
  6
Continuous
 62
    41
370
     9
100
AcDbText
 10
8611.518750006859
 20
7208.018000005344
 30
0.0
 40
127.5
  1
100φ
 41
0.9058823529411765
  7
STYLE1
 72
     1
 11
8790.948000006858
 21
7271.768000005344
 31
0.0
100
AcDbText
 73
     2
  0
TEXT
  5
EF
330
1F
100
AcDbEntity
  8
空調文字
  6
Continuous
 62
    41
370
     9
100
AcDbText
 10
7622.881000003094
 20
7458.01799999737
 30
0.0
 40
127.5
  1
 6.35
 41
0.9058823529411765
  7
STYLE1
 11
7622.881000003094
 21
7521.76799999737
 31
0.0
100
AcDbText
 73
     2
  0
TEXT
  5
F0
330
1F
100
AcDbEntity
  8
空調文字
  6
Continuous
 62
    41
370
     9
100
AcDbText
 10
6622.880999992987
 20
7458.017999994569
 30
0.0
 40
127.5
  1
15.88
 41
0.9058823529411765
  7
STYLE1
 11
6622.880999992987
 21
7521.767999994569
 31
0.0
100
AcDbText
 73
     2
  0
INSERT
  5
F4
330
1F
100
AcDbEntity
  8
スリーブ
  6
Continuous
 62
    60
370
     9
100
AcDbBlockReference
  2
SGP_14_087059046187102247140068
 10
5540.947999999858
 20
7521.767999999356
 30
0.0
  0
INSERT
  5
FB
330
1F
100
AcDbEntity
  8
R-PIPE-AIR
  6
Continuous
 62
    60
370
     0
100
AcDbBlockReference
  2
INS15_087059046188102247140068
 10
5568.888499999739
 20
7521.767499999733
 30
0.0
  0
INSERT
  5
101
330
1F
100
AcDbEntity
  8
R-PIPE-AIR
  6
Continuous
 62
    60
370
     0
100
AcDbBlockReference
  2
INS16_087059046189102247140068
 10
5527.773499999734
 20
7521.767499999725
 30
0.0
  0
TEXT
  5
104
330
1F
100
AcDbEntity
  8
空調文字
  6
Continuous
 62
    41
370
     9
100
AcDbText
 10
8611.518749996614
 20
7458.018000003831
 30
0.0
 40
127.5
  1
100φ
 41
0.9058823529411765
  7
STYLE1
 72
     1
 11
8790.947999996613
 21
7521.768000003831
 31
0.0
100
AcDbText
 73
     2
  0
INSERT
  5
108
330
1F
100
AcDbEntity
  8
R-PIPE-AIR
  6
Continuous
 62
    60
370
     0
100
AcDbBlockReference
  2
INS17_087059046190102247140068
 10
5568.888499999739
 20
7021.768499999729
 30
0.0
  0
INSERT
  5
10E
330
1F
100
AcDbEntity
  8
R-PIPE-AIR
  6
Continuous
 62
    60
370
     0
100
AcDbBlockReference
  2
INS18_087059046191102247140068
 10
5526.188499999742
 20
7021.768499999729
 30
0.0
  0
TEXT
  5
111
330
1F
100
AcDbEntity
  8
空調文字
  6
Continuous
 62
    41
370
     9
100
AcDbText
 10
8611.518749995334
 20
6958.018000002063
 30
0.0
 40
127.5
  1
100φ
 41
0.9058823529411765
  7
STYLE1
 72
     1
 11
8790.947999995333
 21
7021.768000002063
 31
0.0
100
AcDbText
 73
     2
  0
LINE
  5
112
330
1F
100
AcDbEntity
  8
罫線
  6
Continuous
 62
    41
370
     9
100
AcDbLine
 10
5290.947999999858
 20
3646.767999999691
 30
0.0
 11
9290.947999999858
 21
3646.767999999691
 31
0.0
  0
TEXT
  5
113
330
1F
100
AcDbEntity
  8
空調文字
  6
Continuous
 62
    41
370
     9
100
AcDbText
 10
8611.518750012592
 20
6708.018000012409
 30
0.0
 40
127.5
  1
100φ
 41
0.9058823529411765
  7
STYLE1
 72
     1
 11
8790.948000012591
 21
6771.768000012409
 31
0.0
100
AcDbText
 73
     2
  0
INSERT
  5
117
330
1F
100
AcDbEntity
  8
R-PIPE-AIR
  6
Continuous
 62
    60
370
     0
100
AcDbBlockReference
  2
INS19_087059046192102247140068
 10
5570.473499999745
 20
6771.768499999729
 30
0.0
  0
TEXT
  5
11A
330
1F
100
AcDbEntity
  8
空調文字
  6
Continuous
 62
    41
370
     9
100
AcDbText
 10
8611.518750003432
 20
6458.018000010845
 30
0.0
 40
127.5
  1
125φ
 41
0.9058823529411765
  7
STYLE1
 72
     1
 11
8790.948000003431
 21
6521.768000010845
 31
0.0
100
AcDbText
 73
     2
  0
INSERT
  5
11E
330
1F
100
AcDbEntity
  8
R-PIPE-AIR
  6
Continuous
 62
    60
370
     0
100
AcDbBlockReference
  2
INS20_087059046193102247140068
 10
5572.058499999737
 20
6521.768499999729
 30
0.0
  0
TEXT
  5
121
330
1F
100
AcDbEntity
  8
空調文字
  6
Continuous
 62
    41
370
     9
100
AcDbText
 10
7622.881000001224
 20
5708.01799999662
 30
0.0
 40
127.5
  1
12.7
 41
0.9058823529411765
  7
STYLE1
 11
7622.881000001224
 21
5771.76799999662
 31
0.0
100
AcDbText
 73
     2
  0
TEXT
  5
122
330
1F
100
AcDbEntity
  8
空調文字
  6
Continuous
 62
    41
370
     9
100
AcDbText
 10
7622.880999997702
 20
5458.017999999815
 30
0.0
 40
127.5
  1
12.7
 41
0.9058823529411765
  7
STYLE1
 11
7622.880999997702
 21
5521.767999999815
 31
0.0
100
AcDbText
 73
     2
  0
TEXT
  5
123
330
1F
100
AcDbEntity
  8
空調文字
  6
Continuous
 62
    41
370
     9
100
AcDbText
 10
7622.880999999368
 20
5208.017999998672
 30
0.0
 40
127.5
  1
12.7
 41
0.9058823529411765
  7
STYLE1
 11
7622.880999999368
 21
5271.767999998672
 31
0.0
100
AcDbText
 73
     2
  0
TEXT
  5
124
330
1F
100
AcDbEntity
  8
空調文字
  6
Continuous
 62
    41
370
     9
100
AcDbText
 10
7622.88099999517
 20
4958.017999998912
 30
0.0
 40
127.5
  1
12.7
 41
0.9058823529411765
  7
STYLE1
 11
7622.88099999517
 21
5021.767999998912
 31
0.0
100
AcDbText
 73
     2
  0
INSERT
  5
128
330
1F
100
AcDbEntity
  8
R-PIPE-AIR
  6
Continuous
 62
    60
370
     0
100
AcDbBlockReference
  2
INS21_102059046203102247140068
 10
5568.888499999739
 20
6271.768499999729
 30
0.0
  0
TEXT
  5
12B
330
1F
100
AcDbEntity
  8
空調文字
  6
Continuous
 62
    41
370
     9
100
AcDbText
 10
6622.881000007881
 20
6208.018000007447
 30
0.0
 40
127.5
  1
15.88
 41
0.9058823529411765
  7
STYLE1
 11
6622.881000007881
 21
6271.768000007447
 31
0.0
100
AcDbText
 73
     2
  0
TEXT
  5
12C
330
1F
100
AcDbEntity
  8
空調文字
  6
Continuous
 62
    41
370
     9
100
AcDbText
 10
6622.88099999915
 20
5958.018000006545
 30
0.0
 40
127.5
  1
19.05
 41
0.9058823529411765
  7
STYLE1
 11
6622.88099999915
 21
6021.768000006545
 31
0.0
100
AcDbText
 73
     2
  0
TEXT
  5
12D
330
1F
100
AcDbEntity
  8
空調文字
  6
Continuous
 62
    41
370
     9
100
AcDbText
 10
6622.880999996312
 20
5708.0179999924
 30
0.0
 40
127.5
  1
22.22
 41
0.9058823529411765
  7
STYLE1
 11
6622.880999996312
 21
5771.7679999924
 31
0.0
100
AcDbText
 73
     2
  0
TEXT
  5
12E
330
1F
100
AcDbEntity
  8
空調文字
  6
Continuous
 62
    41
370
     9
100
AcDbText
 10
6622.880999989713
 20
4958.017999998207
 30
0.0
 40
127.5
  1
31.75
 41
0.9058823529411765
  7
STYLE1
 11
6622.880999989713
 21
5021.767999998207
 31
0.0
100
AcDbText
 73
     2
  0
TEXT
  5
12F
330
1F
100
AcDbEntity
  8
空調文字
  6
Continuous
 62
    41
370
     9
100
AcDbText
 10
8611.518750014455
 20
6208.018000006043
 30
0.0
 40
127.5
  1
100φ
 41
0.9058823529411765
  7
STYLE1
 72
     1
 11
8790.948000014454
 21
6271.768000006043
 31
0.0
100
AcDbText
 73
     2
  0
INSERT
  5
133
330
1F
100
AcDbEntity
  8
スリーブ
  6
Continuous
 62
    60
370
     9
100
AcDbBlockReference
  2
SGP_22_118059046218102247140068
 10
5540.947999999858
 20
6271.768000002361
 30
0.0
  0
INSERT
  5
13A
330
1F
100
AcDbEntity
  8
R-PIPE-AIR
  6
Continuous
 62
    60
370
     0
100
AcDbBlockReference
  2
INS23_118059046219102247140068
 10
5524.598499999745
 20
6271.768499999729
 30
0.0
  0
TEXT
  5
13D
330
1F
100
AcDbEntity
  8
空調文字
  6
Continuous
 62
    41
370
     9
100
AcDbText
 10
8611.518750004079
 20
5958.018000005744
 30
0.0
 40
127.5
  1
125φ
 41
0.9058823529411765
  7
STYLE1
 72
     1
 11
8790.948000004079
 21
6021.768000005744
 31
0.0
100
AcDbText
 73
     2
  0
INSERT
  5
141
330
1F
100
AcDbEntity
  8
スリーブ
  6
Continuous
 62
    60
370
     0
100
AcDbBlockReference
  2
SGP_24_118059046220102247140068
 10
5540.947999999858
 20
6021.768000002732
 30
0.0
  0
INSERT
  5
148
330
1F
100
AcDbEntity
  8
R-PIPE-AIR
  6
Continuous
 62
    60
370
     0
100
AcDbBlockReference
  2
INS25_118059046221102247140068
 10
5570.473499999738
 20
6021.768499999729
 30
0.0
  0
INSERT
  5
14E
330
1F
100
AcDbEntity
  8
R-PIPE-AIR
  6
Continuous
 62
    60
370
     0
100
AcDbBlockReference
  2
INS26_118059046222102247140068
 10
5524.598499999745
 20
6021.768499999729
 30
0.0
  0
TEXT
  5
151
330
1F
100
AcDbEntity
  8
空調文字
  6
Continuous
 62
    41
370
     9
100
AcDbText
 10
8611.518750001118
 20
5708.01800000199
 30
0.0
 40
127.5
  1
125φ
 41
0.9058823529411765
  7
STYLE1
 72
     1
 11
8790.948000001117
 21
5771.76800000199
 31
0.0
100
AcDbText
 73
     2
  0
TEXT
  5
152
330
1F
100
AcDbEntity
  8
空調文字
  6
Continuous
 62
    41
370
     9
100
AcDbText
 10
8611.518750002835
 20
5458.018000006246
 30
0.0
 40
127.5
  1
125φ
 41
0.9058823529411765
  7
STYLE1
 72
     1
 11
8790.948000002834
 21
5521.768000006246
 31
0.0
100
AcDbText
 73
     2
  0
TEXT
  5
153
330
1F
100
AcDbEntity
  8
空調文字
  6
Continuous
 62
    41
370
     9
100
AcDbText
 10
8611.518750005294
 20
5208.018000005257
 30
0.0
 40
127.5
  1
125φ
 41
0.9058823529411765
  7
STYLE1
 72
     1
 11
8790.948000005294
 21
5271.768000005257
 31
0.0
100
AcDbText
 73
     2
  0
TEXT
  5
154
330
1F
100
AcDbEntity
  8
空調文字
  6
Continuous
 62
    41
370
     9
100
AcDbText
 10
8611.518749998855
 20
4958.018000008065
 30
0.0
 40
127.5
  1
125φ
 41
0.9058823529411765
  7
STYLE1
 72
     1
 11
8790.947999998854
 21
5021.768000008065
 31
0.0
100
AcDbText
 73
     2
  0
INSERT
  5
158
330
1F
100
AcDbEntity
  8
スリーブ
  6
Continuous
 62
    60
370
     0
100
AcDbBlockReference
  2
SGP_27_133059046234102247140068
 10
5540.947999999858
 20
5771.768000002732
 30
0.0
  0
INSERT
  5
15F
330
1F
100
AcDbEntity
  8
スリーブ
  6
Continuous
 62
    60
370
     0
100
AcDbBlockReference
  2
SGP_28_133059046235102247140068
 10
5540.947999999858
 20
5521.768000002732
 30
0.0
  0
INSERT
  5
166
330
1F
100
AcDbEntity
  8
スリーブ
  6
Continuous
 62
    60
370
     0
100
AcDbBlockReference
  2
SGP_29_133059046236102247140068
 10
5540.947999999858
 20
5271.768000002732
 30
0.0
  0
INSERT
  5
16D
330
1F
100
AcDbEntity
  8
スリーブ
  6
Continuous
 62
    60
370
     0
100
AcDbBlockReference
  2
SGP_30_133059046237102247140068
 10
5540.947999999858
 20
5021.768000002732
 30
0.0
  0
INSERT
  5
174
330
1F
100
AcDbEntity
  8
R-PIPE-AIR
  6
Continuous
 62
    60
370
     0
100
AcDbBlockReference
  2
INS31_133059046238102247140068
 10
5572.058499999737
 20
5771.768499999729
 30
0.0
  0
INSERT
  5
17A
330
1F
100
AcDbEntity
  8
R-PIPE-AIR
  6
Continuous
 62
    60
370
     0
100
AcDbBlockReference
  2
INS32_133059046239102247140068
 10
5573.298499999743
 20
5521.768499999729
 30
0.0
  0
INSERT
  5
180
330
1F
100
AcDbEntity
  8
R-PIPE-AIR
  6
Continuous
 62
    60
370
     0
100
AcDbBlockReference
  2
INS33_133059046240102247140068
 10
5575.238499999738
 20
5271.768499999729
 30
0.0
  0
INSERT
  5
186
330
1F
100
AcDbEntity
  8
R-PIPE-AIR
  6
Continuous
 62
    60
370
     0
100
AcDbBlockReference
  2
INS34_133059046241102247140068
 10
5576.823499999737
 20
5021.768499999729
 30
0.0
  0
INSERT
  5
18C
330
1F
100
AcDbEntity
  8
R-PIPE-AIR
  6
Continuous
 62
    60
370
     0
100
AcDbBlockReference
  2
INS35_133059046242102247140068
 10
5524.598499999738
 20
5771.768499999729
 30
0.0
  0
INSERT
  5
192
330
1F
100
AcDbEntity
  8
R-PIPE-AIR
  6
Continuous
 62
    60
370
     0
100
AcDbBlockReference
  2
INS36_133059046243102247140068
 10
5524.24849999974
 20
5521.768499999729
 30
0.0
  0
INSERT
  5
198
330
1F
100
AcDbEntity
  8
R-PIPE-AIR
  6
Continuous
 62
    60
370
     0
100
AcDbBlockReference
  2
INS37_133059046244102247140068
 10
5524.598499999745
 20
5271.768499999729
 30
0.0
  0
INSERT
  5
19E
330
1F
100
AcDbEntity
  8
R-PIPE-AIR
  6
Continuous
 62
    60
370
     0
100
AcDbBlockReference
  2
INS38_149059046245102247140068
 10
5524.598499999738
 20
5021.768499999729
 30
0.0
  0
TEXT
  5
1A1
330
1F
100
AcDbEntity
  8
空調文字
  6
Continuous
 62
    41
370
     9
100
AcDbText
 10
7622.881000002213
 20
4458.018000001415
 30
0.0
 40
127.5
  1
15.88
 41
0.9058823529411765
  7
STYLE1
 11
7622.881000002213
 21
4521.768000001415
 31
0.0
100
AcDbText
 73
     2
  0
TEXT
  5
1A2
330
1F
100
AcDbEntity
  8
空調文字
  6
Continuous
 62
    41
370
     9
100
AcDbText
 10
7622.881000001733
 20
4208.01799999689
 30
0.0
 40
127.5
  1
15.88
 41
0.9058823529411765
  7
STYLE1
 11
7622.881000001733
 21
4271.76799999689
 31
0.0
100
AcDbText
 73
     2
  0
TEXT
  5
1A3
330
1F
100
AcDbEntity
  8
空調文字
  6
Continuous
 62
    41
370
     9
100
AcDbText
 10
7622.881000004672
 20
3958.018000002463
 30
0.0
 40
127.5
  1
15.88
 41
0.9058823529411765
  7
STYLE1
 11
7622.881000004672
 21
4021.768000002463
 31
0.0
100
AcDbText
 73
     2
  0
TEXT
  5
1A4
330
1F
100
AcDbEntity
  8
空調文字
  6
Continuous
 62
    41
370
     9
100
AcDbText
 10
7622.881000006535
 20
3708.017999999916
 30
0.0
 40
127.5
  1
15.88
 41
0.9058823529411765
  7
STYLE1
 11
7622.881000006535
 21
3771.767999999916
 31
0.0
100
AcDbText
 73
     2
  0
TEXT
  5
1A5
330
1F
100
AcDbEntity
  8
空調文字
  6
Continuous
 62
    41
370
     9
100
AcDbText
 10
7622.881000003588
 20
3458.018000002288
 30
0.0
 40
127.5
  1
15.88
 41
0.9058823529411765
  7
STYLE1
 11
7622.881000003588
 21
3521.768000002288
 31
0.0
100
AcDbText
 73
     2
  0
TEXT
  5
1A6
330
1F
100
AcDbEntity
  8
空調文字
  6
Continuous
 62
    41
370
     9
100
AcDbText
 10
7622.881000005109
 20
3208.018000001241
 30
0.0
 40
127.5
  1
15.88
 41
0.9058823529411765
  7
STYLE1
 11
7622.881000005109
 21
3271.768000001241
 31
0.0
100
AcDbText
 73
     2
  0
TEXT
  5
1A7
330
1F
100
AcDbEntity
  8
空調文字
  6
Continuous
 62
    41
370
     9
100
AcDbText
 10
8611.518750006226
 20
4708.018000012613
 30
0.0
 40
127.5
  1
125φ
 41
0.9058823529411765
  7
STYLE1
 72
     1
 11
8790.948000006225
 21
4771.768000012613
 31
0.0
100
AcDbText
 73
     2
  0
TEXT
  5
1A8
330
1F
100
AcDbEntity
  8
空調文字
  6
Continuous
 62
    41
370
     9
100
AcDbText
 10
8611.518750001569
 20
4458.018000003394
 30
0.0
 40
127.5
  1
125φ
 41
0.9058823529411765
  7
STYLE1
 72
     1
 11
8790.948000001568
 21
4521.768000003394
 31
0.0
100
AcDbText
 73
     2
  0
TEXT
  5
1A9
330
1F
100
AcDbEntity
  8
空調文字
  6
Continuous
 62
    41
370
     9
100
AcDbText
 10
8611.518750000638
 20
4208.018000007214
 30
0.0
 40
127.5
  1
125φ
 41
0.9058823529411765
  7
STYLE1
 72
     1
 11
8790.948000000637
 21
4271.768000007214
 31
0.0
100
AcDbText
 73
     2
  0
TEXT
  5
1AA
330
1F
100
AcDbEntity
  8
空調文字
  6
Continuous
 62
    41
370
     9
100
AcDbText
 10
8611.5187500025
 20
3958.018000004617
 30
0.0
 40
127.5
  1
125φ
 41
0.9058823529411765
  7
STYLE1
 72
     1
 11
8790.9480000025
 21
4021.768000004617
 31
0.0
100
AcDbText
 73
     2
  0
TEXT
  5
1AB
330
1F
100
AcDbEntity
  8
空調文字
  6
Continuous
 62
    41
370
     9
100
AcDbText
 10
8611.518750004909
 20
3708.018000001946
 30
0.0
 40
127.5
  1
125φ
 41
0.9058823529411765
  7
STYLE1
 72
     1
 11
8790.948000004908
 21
3771.768000001946
 31
0.0
100
AcDbText
 73
     2
  0
TEXT
  5
1AC
330
1F
100
AcDbEntity
  8
空調文字
  6
Continuous
 62
    41
370
     9
100
AcDbText
 10
8611.518750003148
 20
3458.018000006152
 30
0.0
 40
127.5
  1
125φ
 41
0.9058823529411765
  7
STYLE1
 72
     1
 11
8790.948000003147
 21
3521.768000006152
 31
0.0
100
AcDbText
 73
     2
  0
TEXT
  5
1AD
330
1F
100
AcDbEntity
  8
空調文字
  6
Continuous
 62
    41
370
     9
100
AcDbText
 10
8611.518750002369
 20
3208.018000007302
 30
0.0
 40
127.5
  1
125φ
 41
0.9058823529411765
  7
STYLE1
 72
     1
 11
8790.948000002369
 21
3271.768000007302
 31
0.0
100
AcDbText
 73
     2
  0
TEXT
  5
1AE
330
1F
100
AcDbEntity
  8
空調文字
  6
Continuous
 62
    41
370
     9
100
AcDbText
 10
6622.881000009191
 20
4708.018000005854
 30
0.0
 40
127.5
  1
19.05
 41
0.9058823529411765
  7
STYLE1
 11
6622.881000009191
 21
4771.768000005854
 31
0.0
100
AcDbText
 73
     2
  0
TEXT
  5
1AF
330
1F
100
AcDbEntity
  8
空調文字
  6
Continuous
 62
    41
370
     9
100
AcDbText
 10
6622.880999997142
 20
4458.017999993957
 30
0.0
 40
127.5
  1
22.22
 41
0.9058823529411765
  7
STYLE1
 11
6622.880999997142
 21
4521.767999993957
 31
0.0
100
AcDbText
 73
     2
  0
TEXT
  5
1B0
330
1F
100
AcDbEntity
  8
空調文字
  6
Continuous
 62
    41
370
     9
100
AcDbText
 10
6622.881000003348
 20
4208.0180000002
 30
0.0
 40
127.5
  1
25.4
 41
0.9058823529411765
  7
STYLE1
 11
6622.881000003348
 21
4271.7680000002
 31
0.0
100
AcDbText
 73
     2
  0
TEXT
  5
1B1
330
1F
100
AcDbEntity
  8
空調文字
  6
Continuous
 62
    41
370
     9
100
AcDbText
 10
6622.880999992507
 20
3958.01799999865
 30
0.0
 40
127.5
  1
28.58
 41
0.9058823529411765
  7
STYLE1
 11
6622.880999992507
 21
4021.76799999865
 31
0.0
100
AcDbText
 73
     2
  0
TEXT
  5
1B2
330
1F
100
AcDbEntity
  8
空調文字
  6
Continuous
 62
    41
370
     9
100
AcDbText
 10
6622.880999987858
 20
3708.017999997799
 30
0.0
 40
127.5
  1
31.75
 41
0.9058823529411765
  7
STYLE1
 11
6622.880999987858
 21
3771.767999997799
 31
0.0
100
AcDbText
 73
     2
  0
TEXT
  5
1B3
330
1F
100
AcDbEntity
  8
空調文字
  6
Continuous
 62
    41
370
     9
100
AcDbText
 10
6622.880999989058
 20
3458.018000001044
 30
0.0
 40
127.5
  1
34.92
 41
0.9058823529411765
  7
STYLE1
 11
6622.880999989058
 21
3521.768000001044
 31
0.0
100
AcDbText
 73
     2
  0
TEXT
  5
1B4
330
1F
100
AcDbEntity
  8
空調文字
  6
Continuous
 62
    41
370
     9
100
AcDbText
 10
6622.880999990921
 20
3208.018000000724
 30
0.0
 40
127.5
  1
38.10
 41
0.9058823529411765
  7
STYLE1
 11
6622.880999990921
 21
3271.768000000724
 31
0.0
100
AcDbText
 73
     2
  0
INSERT
  5
1B8
330
1F
100
AcDbEntity
  8
スリーブ
  6
Continuous
 62
    60
370
     0
100
AcDbBlockReference
  2
SGP_39_165059046009102247140068
 10
5540.947999999858
 20
4771.768000002732
 30
0.0
  0
INSERT
  5
1BF
330
1F
100
AcDbEntity
  8
スリーブ
  6
Continuous
 62
    60
370
     0
100
AcDbBlockReference
  2
SGP_40_165059046010102247140068
 10
5540.947999999858
 20
4521.768000002732
 30
0.0
  0
INSERT
  5
1C6
330
1F
100
AcDbEntity
  8
スリーブ
  6
Continuous
 62
    60
370
     0
100
AcDbBlockReference
  2
SGP_41_165059046011102247140068
 10
5540.947999999858
 20
4271.768000002732
 30
0.0
  0
INSERT
  5
1CD
330
1F
100
AcDbEntity
  8
スリーブ
  6
Continuous
 62
    60
370
     0
100
AcDbBlockReference
  2
SGP_42_165059046012102247140068
 10
5540.947999999858
 20
4021.768000002732
 30
0.0
  0
INSERT
  5
1D4
330
1F
100
AcDbEntity
  8
スリーブ
  6
Continuous
 62
    60
370
     0
100
AcDbBlockReference
  2
SGP_43_165059046013102247140068
 10
5540.947999999858
 20
3771.768000002732
 30
0.0
  0
INSERT
  5
1DB
330
1F
100
AcDbEntity
  8
スリーブ
  6
Continuous
 62
    60
370
     0
100
AcDbBlockReference
  2
SGP_44_180059046025102247140068
 10
5540.947999999858
 20
3521.768000002732
 30
0.0
  0
INSERT
  5
1E2
330
1F
100
AcDbEntity
  8
スリーブ
  6
Continuous
 62
    60
370
     0
100
AcDbBlockReference
  2
SGP_45_180059046026102247140068
 10
5540.947999999858
 20
3271.768000002732
 30
0.0
  0
INSERT
  5
1E9
330
1F
100
AcDbEntity
  8
R-PIPE-AIR
  6
Continuous
 62
    60
370
     0
100
AcDbBlockReference
  2
INS46_180059046027102247140068
 10
5523.008499999734
 20
4771.768499999729
 30
0.0
  0
INSERT
  5
1EF
330
1F
100
AcDbEntity
  8
R-PIPE-AIR
  6
Continuous
 62
    60
370
     0
100
AcDbBlockReference
  2
INS47_180059046028102247140068
 10
5523.008499999734
 20
4521.768499999729
 30
0.0
  0
INSERT
  5
1F5
330
1F
100
AcDbEntity
  8
R-PIPE-AIR
  6
Continuous
 62
    60
370
     0
100
AcDbBlockReference
  2
INS48_180059046029102247140068
 10
5523.008499999742
 20
4271.768499999729
 30
0.0
  0
INSERT
  5
1FB
330
1F
100
AcDbEntity
  8
R-PIPE-AIR
  6
Continuous
 62
    60
370
     0
100
AcDbBlockReference
  2
INS49_180059046030102247140068
 10
5523.008499999734
 20
4021.768499999729
 30
0.0
  0
INSERT
  5
201
330
1F
100
AcDbEntity
  8
R-PIPE-AIR
  6
Continuous
 62
    60
370
     0
100
AcDbBlockReference
  2
INS50_180059046031102247140068
 10
5523.008499999734
 20
3771.768499999729
 30
0.0
  0
INSERT
  5
207
330
1F
100
AcDbEntity
  8
R-PIPE-AIR
  6
Continuous
 62
    60
370
     0
100
AcDbBlockReference
  2
INS51_180059046032102247140068
 10
5570.473499999745
 20
4771.768499999729
 30
0.0
  0
INSERT
  5
20D
330
1F
100
AcDbEntity
  8
R-PIPE-AIR
  6
Continuous
 62
    60
370
     0
100
AcDbBlockReference
  2
INS52_180059046033102247140068
 10
5572.058499999737
 20
4521.768499999729
 30
0.0
  0
INSERT
  5
213
330
1F
100
AcDbEntity
  8
R-PIPE-AIR
  6
Continuous
 62
    60
370
     0
100
AcDbBlockReference
  2
INS53_180059046034102247140068
 10
5573.648499999734
 20
4271.768499999729
 30
0.0
  0
INSERT
  5
219
330
1F
100
AcDbEntity
  8
R-PIPE-AIR
  6
Continuous
 62
    60
370
     0
100
AcDbBlockReference
  2
INS54_180059046035102247140068
 10
5575.238499999745
 20
4021.768499999729
 30
0.0
  0
INSERT
  5
21F
330
1F
100
AcDbEntity
  8
R-PIPE-AIR
  6
Continuous
 62
    60
370
     0
100
AcDbBlockReference
  2
INS55_180059046036102247140068
 10
5576.823499999737
 20
3771.768499999729
 30
0.0
  0
INSERT
  5
225
330
1F
100
AcDbEntity
  8
R-PIPE-AIR
  6
Continuous
 62
    60
370
     0
100
AcDbBlockReference
  2
INS56_180059046037102247140068
 10
5578.408499999743
 20
3521.768499999729
 30
0.0
  0
INSERT
  5
22B
330
1F
100
AcDbEntity
  8
R-PIPE-AIR
  6
Continuous
 62
    60
370
     0
100
AcDbBlockReference
  2
INS57_180059046038102247140068
 10
5579.99849999974
 20
3271.768499999729
 30
0.0
  0
INSERT
  5
231
330
1F
100
AcDbEntity
  8
R-PIPE-AIR
  6
Continuous
 62
    60
370
     0
100
AcDbBlockReference
  2
INS58_180059046039102247140068
 10
5523.008499999742
 20
3521.768499999729
 30
0.0
  0
INSERT
  5
237
330
1F
100
AcDbEntity
  8
R-PIPE-AIR
  6
Continuous
 62
    60
370
     0
100
AcDbBlockReference
  2
INS59_196059046040102247140068
 10
5523.008499999734
 20
3271.768499999729
 30
0.0
  0
LINE
  5
23A
330
1F
100
AcDbEntity
  8
罫線
  6
Continuous
 62
    41
370
     9
100
AcDbLine
 10
5290.947999999858
 20
2646.767999999691
 30
0.0
 11
9290.947999999858
 21
2646.767999999691
 31
0.0
  0
LINE
  5
23B
330
1F
100
AcDbEntity
  8
罫線
  6
Continuous
 62
    41
370
     9
100
AcDbLine
 10
5290.947999999858
 20
2396.767999999691
 30
0.0
 11
9290.947999999858
 21
2396.767999999691
 31
0.0
  0
LINE
  5
23C
330
1F
100
AcDbEntity
  8
罫線
  6
Continuous
 62
    41
370
     9
100
AcDbLine
 10
5290.947999999858
 20
2146.767999999691
 30
0.0
 11
9290.947999999858
 21
2146.767999999691
 31
0.0
  0
LINE
  5
23D
330
1F
100
AcDbEntity
  8
罫線
  6
Continuous
 62
    41
370
     9
100
AcDbLine
 10
5290.947999999858
 20
1646.767999999691
 30
0.0
 11
9290.947999999858
 21
1646.767999999691
 31
0.0
  0
LINE
  5
23E
330
1F
100
AcDbEntity
  8
罫線
  6
Continuous
 62
    41
370
     9
100
AcDbLine
 10
5290.947999999858
 20
1896.767999999691
 30
0.0
 11
9290.947999999858
 21
1896.767999999691
 31
0.0
  0
TEXT
  5
23F
330
1F
100
AcDbEntity
  8
空調文字
  6
Continuous
 62
    41
370
     9
100
AcDbText
 10
7622.880999998473
 20
2708.017999997734
 30
0.0
 40
127.5
  1
19.05
 41
0.9058823529411765
  7
STYLE1
 11
7622.880999998473
 21
2771.767999997734
 31
0.0
100
AcDbText
 73
     2
  0
TEXT
  5
240
330
1F
100
AcDbEntity
  8
空調文字
  6
Continuous
 62
    41
370
     9
100
AcDbText
 10
7622.881000002199
 20
2458.017999994008
 30
0.0
 40
127.5
  1
19.05
 41
0.9058823529411765
  7
STYLE1
 11
7622.881000002199
 21
2521.767999994008
 31
0.0
100
AcDbText
 73
     2
  0
TEXT
  5
241
330
1F
100
AcDbEntity
  8
空調文字
  6
Continuous
 62
    41
370
     9
100
AcDbText
 10
7622.881000002199
 20
2208.017999995871
 30
0.0
 40
127.5
  1
19.05
 41
0.9058823529411765
  7
STYLE1
 11
7622.881000002199
 21
2271.767999995871
 31
0.0
100
AcDbText
 73
     2
  0
TEXT
  5
242
330
1F
100
AcDbEntity
  8
空調文字
  6
Continuous
 62
    41
370
     9
100
AcDbText
 10
7622.881000001056
 20
1958.017999994365
 30
0.0
 40
127.5
  1
19.05
 41
0.9058823529411765
  7
STYLE1
 11
7622.881000001056
 21
2021.767999994365
 31
0.0
100
AcDbText
 73
     2
  0
TEXT
  5
243
330
1F
100
AcDbEntity
  8
空調文字
  6
Continuous
 62
    41
370
     9
100
AcDbText
 10
7622.881000001056
 20
1708.017999996613
 30
0.0
 40
127.5
  1
19.05
 41
0.9058823529411765
  7
STYLE1
 11
7622.881000001056
 21
1771.767999996613
 31
0.0
100
AcDbText
 73
     2
  0
TEXT
  5
244
330
1F
100
AcDbEntity
  8
空調文字
  6
Continuous
 62
    41
370
     9
100
AcDbText
 10
8611.518750002435
 20
2208.018000010728
 30
0.0
 40
127.5
  1
125φ
 41
0.9058823529411765
  7
STYLE1
 72
     1
 11
8790.948000002434
 21
2271.768000010728
 31
0.0
100
AcDbText
 73
     2
  0
TEXT
  5
245
330
1F
100
AcDbEntity
  8
空調文字
  6
Continuous
 62
    41
370
     9
100
AcDbText
 10
8611.518750002631
 20
2958.018000007993
 30
0.0
 40
127.5
  1
125φ
 41
0.9058823529411765
  7
STYLE1
 72
     1
 11
8790.948000002631
 21
3021.768000007993
 31
0.0
100
AcDbText
 73
     2
  0
TEXT
  5
246
330
1F
100
AcDbEntity
  8
空調文字
  6
Continuous
 62
    41
370
     9
100
AcDbText
 10
8611.518749998761
 20
2708.01800000247
 30
0.0
 40
127.5
  1
125φ
 41
0.9058823529411765
  7
STYLE1
 72
     1
 11
8790.94799999876
 21
2771.76800000247
 31
0.0
100
AcDbText
 73
     2
  0
TEXT
  5
247
330
1F
100
AcDbEntity
  8
空調文字
  6
Continuous
 62
    41
370
     9
100
AcDbText
 10
8611.518750007957
 20
2458.018000008618
 30
0.0
 40
127.5
  1
125φ
 41
0.9058823529411765
  7
STYLE1
 72
     1
 11
8790.948000007957
 21
2521.768000008618
 31
0.0
100
AcDbText
 73
     2
  0
TEXT
  5
248
330
1F
100
AcDbEntity
  8
空調文字
  6
Continuous
 62
    41
370
     9
100
AcDbText
 10
8611.518750004363
 20
1958.018000006996
 30
0.0
 40
127.5
  1
125φ
 41
0.9058823529411765
  7
STYLE1
 72
     1
 11
8790.948000004362
 21
2021.768000006996
 31
0.0
100
AcDbText
 73
     2
  0
TEXT
  5
249
330
1F
100
AcDbEntity
  8
空調文字
  6
Continuous
 62
    41
370
     9
100
AcDbText
 10
8611.518750005513
 20
1708.018000011456
 30
0.0
 40
127.5
  1
150φ
 41
0.9058823529411765
  7
STYLE1
 72
     1
 11
8790.948000005512
 21
1771.768000011456
 31
0.0
100
AcDbText
 73
     2
  0
TEXT
  5
24A
330
1F
100
AcDbEntity
  8
空調文字
  6
Continuous
 62
    41
370
     9
100
AcDbText
 10
6622.880999999725
 20
2958.017999994154
 30
0.0
 40
127.5
  1
22.22
 41
0.9058823529411765
  7
STYLE1
 11
6622.880999999725
 21
3021.767999994154
 31
0.0
100
AcDbText
 73
     2
  0
TEXT
  5
24B
330
1F
100
AcDbEntity
  8
空調文字
  6
Continuous
 62
    41
370
     9
100
AcDbText
 10
6622.880999999623
 20
2708.0180000002
 30
0.0
 40
127.5
  1
25.4
 41
0.9058823529411765
  7
STYLE1
 11
6622.880999999623
 21
2771.7680000002
 31
0.0
100
AcDbText
 73
     2
  0
TEXT
  5
24C
330
1F
100
AcDbEntity
  8
空調文字
  6
Continuous
 62
    41
370
     9
100
AcDbText
 10
6622.880999996691
 20
2458.017999996788
 30
0.0
 40
127.5
  1
28.58
 41
0.9058823529411765
  7
STYLE1
 11
6622.880999996691
 21
2521.767999996788
 31
0.0
100
AcDbText
 73
     2
  0
TEXT
  5
24D
330
1F
100
AcDbEntity
  8
空調文字
  6
Continuous
 62
    41
370
     9
100
AcDbText
 10
6622.880999986715
 20
2208.017999996227
 30
0.0
 40
127.5
  1
31.75
 41
0.9058823529411765
  7
STYLE1
 11
6622.880999986715
 21
2271.767999996227
 31
0.0
100
AcDbText
 73
     2
  0
TEXT
  5
24E
330
1F
100
AcDbEntity
  8
空調文字
  6
Continuous
 62
    41
370
     9
100
AcDbText
 10
6622.880999988178
 20
1958.017999999
 30
0.0
 40
127.5
  1
34.92
 41
0.9058823529411765
  7
STYLE1
 11
6622.880999988178
 21
2021.767999999
 31
0.0
100
AcDbText
 73
     2
  0
TEXT
  5
24F
330
1F
100
AcDbEntity
  8
空調文字
  6
Continuous
 62
    41
370
     9
100
AcDbText
 10
6622.880999992784
 20
1708.018000000724
 30
0.0
 40
127.5
  1
38.10
 41
0.9058823529411765
  7
STYLE1
 11
6622.880999992784
 21
1771.768000000724
 31
0.0
100
AcDbText
 73
     2
  0
CIRCLE
  5
250
330
1F
100
AcDbEntity
  8
空調文字
  6
Continuous
 62
    41
370
     9
100
AcDbCircle
 10
6040.947999999858
 20
2771.767999999691
 30
0.0
 40
100.0
  0
TEXT
  5
251
330
1F
100
AcDbEntity
  8
空調文字
  6
Continuous
 62
    41
370
     9
100
AcDbText
 10
6004.045750018354
 20
2708.017999994088
 30
0.0
 40
127.5
  1
V
 41
0.9058823529411765
  7
STYLE1
 72
     1
 11
6040.948000018354
 21
2771.767999994088
 31
0.0
100
AcDbText
 73
     2
  0
CIRCLE
  5
252
330
1F
100
AcDbEntity
  8
空調文字
  6
Continuous
 62
    41
370
     9
100
AcDbCircle
 10
6040.947999999858
 20
2521.767999999691
 30
0.0
 40
100.0
  0
TEXT
  5
253
330
1F
100
AcDbEntity
  8
空調文字
  6
Continuous
 62
    41
370
     9
100
AcDbText
 10
6004.045750013886
 20
2458.017999989839
 30
0.0
 40
127.5
  1
W
 41
0.9058823529411765
  7
STYLE1
 72
     1
 11
6040.948000013887
 21
2521.767999989839
 31
0.0
100
AcDbText
 73
     2
  0
CIRCLE
  5
254
330
1F
100
AcDbEntity
  8
空調文字
  6
Continuous
 62
    41
370
     9
100
AcDbCircle
 10
6040.947999999858
 20
2271.767999999691
 30
0.0
 40
100.0
  0
TEXT
  5
255
330
1F
100
AcDbEntity
  8
空調文字
  6
Continuous
 62
    41
370
     9
100
AcDbText
 10
6004.045750008837
 20
2208.01799999681
 30
0.0
 40
127.5
  1
X
 41
0.9058823529411765
  7
STYLE1
 72
     1
 11
6040.948000008837
 21
2271.76799999681
 31
0.0
100
AcDbText
 73
     2
  0
CIRCLE
  5
256
330
1F
100
AcDbEntity
  8
空調文字
  6
Continuous
 62
    41
370
     9
100
AcDbCircle
 10
6040.947999999858
 20
2021.767999999691
 30
0.0
 40
100.0
  0
TEXT
  5
257
330
1F
100
AcDbEntity
  8
空調文字
  6
Continuous
 62
    41
370
     9
100
AcDbText
 10
6003.757000012221
 20
1958.017999992546
 30
0.0
 40
127.5
  1
Y
 41
0.9058823529411765
  7
STYLE1
 72
     1
 11
6040.94800001222
 21
2021.767999992546
 31
0.0
100
AcDbText
 73
     2
  0
CIRCLE
  5
258
330
1F
100
AcDbEntity
  8
空調文字
  6
Continuous
 62
    41
370
     9
100
AcDbCircle
 10
6040.947999999858
 20
1771.767999999691
 30
0.0
 40
100.0
  0
TEXT
  5
259
330
1F
100
AcDbEntity
  8
空調文字
  6
Continuous
 62
    41
370
     9
100
AcDbText
 10
6003.699250010773
 20
1708.01799999045
 30
0.0
 40
127.5
  1
Z
 41
0.9058823529411765
  7
STYLE1
 72
     1
 11
6040.948000010772
 21
1771.76799999045
 31
0.0
100
AcDbText
 73
     2
  0
INSERT
  5
25D
330
1F
100
AcDbEntity
  8
スリーブ
  6
Continuous
 62
    60
370
     0
100
AcDbBlockReference
  2
SGP_60_212059046056102247140068
 10
5540.947999999858
 20
3021.768000002732
 30
0.0
  0
INSERT
  5
264
330
1F
100
AcDbEntity
  8
スリーブ
  6
Continuous
 62
    60
370
     0
100
AcDbBlockReference
  2
SGP_61_212059046057102247140068
 10
5540.947999999858
 20
2771.768000002732
 30
0.0
  0
INSERT
  5
26B
330
1F
100
AcDbEntity
  8
スリーブ
  6
Continuous
 62
    60
370
     0
100
AcDbBlockReference
  2
SGP_62_212059046058102247140068
 10
5540.947999999858
 20
2521.768000002732
 30
0.0
  0
INSERT
  5
272
330
1F
100
AcDbEntity
  8
スリーブ
  6
Continuous
 62
    60
370
     0
100
AcDbBlockReference
  2
SGP_63_227059046072102247140068
 10
5540.947999999858
 20
2271.768000002732
 30
0.0
  0
INSERT
  5
279
330
1F
100
AcDbEntity
  8
スリーブ
  6
Continuous
 62
    60
370
     0
100
AcDbBlockReference
  2
SGP_64_227059046073102247140068
 10
5540.947999999858
 20
2021.768000002732
 30
0.0
  0
INSERT
  5
280
330
1F
100
AcDbEntity
  8
スリーブ
  6
Continuous
 62
    60
370
     0
100
AcDbBlockReference
  2
SGP_65_227059046074102247140068
 10
5540.947999999858
 20
1771.768000002732
 30
0.0
  0
INSERT
  5
287
330
1F
100
AcDbEntity
  8
R-PIPE-AIR
  6
Continuous
 62
    60
370
     0
100
AcDbBlockReference
  2
INS66_227059046075102247140068
 10
5521.423499999743
 20
3021.768499999729
 30
0.0
  0
INSERT
  5
28D
330
1F
100
AcDbEntity
  8
R-PIPE-AIR
  6
Continuous
 62
    60
370
     0
100
AcDbBlockReference
  2
INS67_227059046076102247140068
 10
5521.423499999743
 20
2771.768499999729
 30
0.0
  0
INSERT
  5
293
330
1F
100
AcDbEntity
  8
R-PIPE-AIR
  6
Continuous
 62
    60
370
     0
100
AcDbBlockReference
  2
INS68_227059046077102247140068
 10
5521.423499999743
 20
2521.768499999729
 30
0.0
  0
INSERT
  5
299
330
1F
100
AcDbEntity
  8
R-PIPE-AIR
  6
Continuous
 62
    60
370
     0
100
AcDbBlockReference
  2
INS69_227059046078102247140068
 10
5521.423499999743
 20
2271.768499999729
 30
0.0
  0
INSERT
  5
29F
330
1F
100
AcDbEntity
  8
R-PIPE-AIR
  6
Continuous
 62
    60
370
     0
100
AcDbBlockReference
  2
INS70_227059046079102247140068
 10
5521.423499999743
 20
2021.768499999729
 30
0.0
  0
INSERT
  5
2A5
330
1F
100
AcDbEntity
  8
R-PIPE-AIR
  6
Continuous
 62
    60
370
     0
100
AcDbBlockReference
  2
INS71_227059046080102247140068
 10
5521.423499999743
 20
1771.768499999729
 30
0.0
  0
INSERT
  5
2AB
330
1F
100
AcDbEntity
  8
R-PIPE-AIR
  6
Continuous
 62
    60
370
     0
100
AcDbBlockReference
  2
INS72_227059046081102247140068
 10
5572.058499999737
 20
3021.768499999729
 30
0.0
  0
INSERT
  5
2B1
330
1F
100
AcDbEntity
  8
R-PIPE-AIR
  6
Continuous
 62
    60
370
     0
100
AcDbBlockReference
  2
INS73_227059046082102247140068
 10
5573.648499999734
 20
2771.768499999729
 30
0.0
  0
INSERT
  5
2B7
330
1F
100
AcDbEntity
  8
R-PIPE-AIR
  6
Continuous
 62
    60
370
     0
100
AcDbBlockReference
  2
INS74_227059046083102247140068
 10
5575.238499999745
 20
2521.768499999729
 30
0.0
  0
INSERT
  5
2BD
330
1F
100
AcDbEntity
  8
R-PIPE-AIR
  6
Continuous
 62
    60
370
     0
100
AcDbBlockReference
  2
INS75_227059046084102247140068
 10
5576.823499999737
 20
2271.768499999729
 30
0.0
  0
INSERT
  5
2C3
330
1F
100
AcDbEntity
  8
R-PIPE-AIR
  6
Continuous
 62
    60
370
     0
100
AcDbBlockReference
  2
INS76_227059046085102247140068
 10
5578.408499999743
 20
2021.768499999729
 30
0.0
  0
INSERT
  5
2C9
330
1F
100
AcDbEntity
  8
R-PIPE-AIR
  6
Continuous
 62
    60
370
     0
100
AcDbBlockReference
  2
INS77_227059046086102247140068
 10
5579.99849999974
 20
1771.768499999729
 30
0.0
  0
ENDSEC
  0
SECTION
  2
OBJECTS
  0
DICTIONARY
  5
C
330
0
100
AcDbDictionary
281
     1
  3
ACAD_GROUP
350
D
  3
ACAD_LAYOUT
350
1A
  3
ACAD_MLINESTYLE
350
17
  3
ACAD_PLOTSETTINGS
350
19
  3
ACAD_PLOTSTYLENAME
350
E
  0
DICTIONARY
  5
D
102
{ACAD_REACTORS
330
C
102
}
330
C
100
AcDbDictionary
281
     1
  0
DICTIONARY
  5
1A
102
{ACAD_REACTORS
330
C
102
}
330
C
100
AcDbDictionary
281
     1
  3
Layout1
350
1E
  3
Model
350
22
  0
DICTIONARY
  5
17
102
{ACAD_REACTORS
330
C
102
}
330
C
100
AcDbDictionary
281
     1
  3
Standard
350
18
  0
DICTIONARY
  5
19
102
{ACAD_REACTORS
330
C
102
}
330
C
100
AcDbDictionary
281
     1
  0
ACDBDICTIONARYWDFLT
  5
E
102
{ACAD_REACTORS
330
C
102
}
330
C
100
AcDbDictionary
281
     1
  3
Normal
350
F
100
AcDbDictionaryWithDefault
340
F
  0
LAYOUT
  5
1E
102
{ACAD_REACTORS
330
1A
102
}
330
1A
100
AcDbPlotSettings
  1

  2

  4

  6

 40
0.0
 41
0.0
 42
0.0
 43
0.0
 44
0.0
 45
0.0
 46
0.0
 47
0.0
 48
0.0
 49
0.0
140
0.0
141
0.0
142
1.0
143
1.0
 70
   688
 72
     0
 73
     0
 74
     0
  7

 75
     0
147
1.0
148
0.0
149
0.0
100
AcDbLayout
  1
Layout1
 70
     0
 71
     1
 10
0.0
 20
0.0
 11
12.0
 21
9.0
 12
0.0
 22
0.0
 32
0.0
 14
0.0
 24
0.0
 34
0.0
 15
0.0
 25
0.0
 35
0.0
146
0.0
 13
0.0
 23
0.0
 33
0.0
 16
1.0
 26
0.0
 36
0.0
 17
0.0
 27
1.0
 37
0.0
 76
     0
330
1B
  0
LAYOUT
  5
22
102
{ACAD_REACTORS
330
1A
102
}
330
1A
100
AcDbPlotSettings
  1

  2
none_device
  4
ISO_A4_(210.00_x_297.00_MM)
  6

 40
0.0
 41
0.0
 42
0.0
 43
0.0
 44
210.0
 45
297.0
 46
0.0
 47
0.0
 48
0.0
 49
0.0
140
0.0
141
0.0
142
1.0
143
1.0
 70
  1712
 72
     1
 73
     1
 74
     0
  7

 75
     0
147
1.0
148
0.0
149
0.0
100
AcDbLayout
  1
Model
 70
     0
 71
     0
 10
0.0
 20
0.0
 11
17820.0
 21
12600.0
 12
0.0
 22
0.0
 32
0.0
 14
0.0
 24
0.0
 34
0.0
 15
17820.0
 25
12600.0
 35
0.0
146
0.0
 13
0.0
 23
0.0
 33
0.0
 16
1.0
 26
0.0
 36
0.0
 17
0.0
 27
1.0
 37
0.0
 76
     0
330
1F
  0
MLINESTYLE
  5
18
102
{ACAD_REACTORS
330
17
102
}
330
17
100
AcDbMlineStyle
  2
Standard
 70
     0
  3

 62
   256
 51
90.0
 52
90.0
 71
     2
 49
0.5
 62
   256
  6
BYLAYER
 49
-0.5
 62
   256
  6
BYLAYER
  0
ACDBPLACEHOLDER
  5
F
102
{ACAD_REACTORS
330
E
102
}
330
E
  0
ENDSEC
  0
EOF
