  0
SECTION
  2
HEADER
  9
$ACADVER
  1
AC1015
  9
$ACADMAINTVER
 70
     6
  9
$DWGCODEPAGE
  3
ANSI_932
  9
$INSBASE
 10
0.0
 20
0.0
 30
0.0
  9
$EXTMIN
 10
0.0
 20
0.0
 30
0.0
  9
$EXTMAX
 10
356.4
 20
252.0
 30
0.0
  9
$LIMMIN
 10
0.0
 20
0.0
  9
$LIMMAX
 10
356.4
 20
252.0
  9
$ORTHOMODE
 70
     0
  9
$REGENMODE
 70
     1
  9
$FILLMODE
 70
     1
  9
$QTEXTMODE
 70
     0
  9
$MIRRTEXT
 70
     1
  9
$LTSCALE
 40
1.0
  9
$ATTMODE
 70
     1
  9
$TEXTSIZE
 40
0.2
  9
$TRACEWID
 40
0.05
  9
$TEXTSTYLE
  7
Standard
  9
$CLAYER
  8
0
  9
$CELTYPE
  6
ByLayer
  9
$CECOLOR
 62
   256
  9
$CELTSCALE
 40
1.0
  9
$DISPSILH
 70
     0
  9
$DIMSCALE
 40
1.0
  9
$DIMASZ
 40
0.18
  9
$DIMEXO
 40
0.0625
  9
$DIMDLI
 40
0.38
  9
$DIMRND
 40
0.0
  9
$DIMDLE
 40
0.0
  9
$DIMEXE
 40
0.18
  9
$DIMTP
 40
0.0
  9
$DIMTM
 40
0.0
  9
$DIMTXT
 40
0.18
  9
$DIMCEN
 40
0.09
  9
$DIMTSZ
 40
0.0
  9
$DIMTOL
 70
     0
  9
$DIMLIM
 70
     0
  9
$DIMTIH
 70
     1
  9
$DIMTOH
 70
     1
  9
$DIMSE1
 70
     0
  9
$DIMSE2
 70
     0
  9
$DIMTAD
 70
     0
  9
$DIMZIN
 70
     0
  9
$DIMBLK
  1

  9
$DIMASO
 70
     1
  9
$DIMSHO
 70
     1
  9
$DIMPOST
  1

  9
$DIMAPOST
  1

  9
$DIMALT
 70
     0
  9
$DIMALTD
 70
     2
  9
$DIMALTF
 40
25.4
  9
$DIMLFAC
 40
1.0
  9
$DIMTOFL
 70
     0
  9
$DIMTVP
 40
0.0
  9
$DIMTIX
 70
     0
  9
$DIMSOXD
 70
     0
  9
$DIMSAH
 70
     0
  9
$DIMBLK1
  1

  9
$DIMBLK2
  1

  9
$DIMSTYLE
  2
Standard
  9
$DIMCLRD
 70
     0
  9
$DIMCLRE
 70
     0
  9
$DIMCLRT
 70
     0
  9
$DIMTFAC
 40
1.0
  9
$DIMGAP
 40
0.09
  9
$DIMJUST
 70
     0
  9
$DIMSD1
 70
     0
  9
$DIMSD2
 70
     0
  9
$DIMTOLJ
 70
     1
  9
$DIMTZIN
 70
     0
  9
$DIMALTZ
 70
     0
  9
$DIMALTTZ
 70
     0
  9
$DIMUPT
 70
     0
  9
$DIMDEC
 70
     4
  9
$DIMTDEC
 70
     4
  9
$DIMALTU
 70
     2
  9
$DIMALTTD
 70
     2
  9
$DIMTXSTY
  7
Standard
  9
$DIMAUNIT
 70
     0
  9
$DIMADEC
 70
     0
  9
$DIMALTRND
 40
0.0
  9
$DIMAZIN
 70
     0
  9
$DIMDSEP
 70
    46
  9
$DIMATFIT
 70
     3
  9
$DIMFRAC
 70
     0
  9
$DIMLDRBLK
  1

  9
$DIMLUNIT
 70
     2
  9
$DIMLWD
 70
    -2
  9
$DIMLWE
 70
    -2
  9
$DIMTMOVE
 70
     0
  9
$LUNITS
 70
     2
  9
$LUPREC
 70
     4
  9
$SKETCHINC
 40
0.1
  9
$FILLETRAD
 40
0.5
  9
$AUNITS
 70
     0
  9
$AUPREC
 70
     0
  9
$MENU
  1
.
  9
$ELEVATION
 40
0.0
  9
$PELEVATION
 40
0.0
  9
$THICKNESS
 40
0.0
  9
$LIMCHECK
 70
     0
  9
$CHAMFERA
 40
0.5
  9
$CHAMFERB
 40
0.5
  9
$CHAMFERC
 40
1.0
  9
$CHAMFERD
 40
0.0
  9
$SKPOLY
 70
     0
  9
$TDCREATE
 40
2454477.026979167
  9
$TDUCREATE
 40
2454476.651988206
  9
$TDUPDATE
 40
2454477.026979167
  9
$TDUUPDATE
 40
2454476.651988218
  9
$TDINDWG
 40
0.0000000116
  9
$TDUSRTIMER
 40
0.0000000116
  9
$USRTIMER
 70
     1
  9
$ANGBASE
 50
0.0
  9
$ANGDIR
 70
     0
  9
$PDMODE
 70
     0
  9
$PDSIZE
 40
0.0
  9
$PLINEWID
 40
0.0
  9
$SPLFRAME
 70
     0
  9
$SPLINETYPE
 70
     6
  9
$SPLINESEGS
 70
     8
  9
$HANDSEED
  5
A1
  9
$SURFTAB1
 70
     6
  9
$SURFTAB2
 70
     6
  9
$SURFTYPE
 70
     6
  9
$SURFU
 70
     6
  9
$SURFV
 70
     6
  9
$UCSBASE
  2

  9
$UCSNAME
  2

  9
$UCSORG
 10
0.0
 20
0.0
 30
0.0
  9
$UCSXDIR
 10
1.0
 20
0.0
 30
0.0
  9
$UCSYDIR
 10
0.0
 20
1.0
 30
0.0
  9
$UCSORTHOREF
  2

  9
$UCSORTHOVIEW
 70
     0
  9
$UCSORGTOP
 10
0.0
 20
0.0
 30
0.0
  9
$UCSORGBOTTOM
 10
0.0
 20
0.0
 30
0.0
  9
$UCSORGLEFT
 10
0.0
 20
0.0
 30
0.0
  9
$UCSORGRIGHT
 10
0.0
 20
0.0
 30
0.0
  9
$UCSORGFRONT
 10
0.0
 20
0.0
 30
0.0
  9
$UCSORGBACK
 10
0.0
 20
0.0
 30
0.0
  9
$PUCSBASE
  2

  9
$PUCSNAME
  2

  9
$PUCSORG
 10
0.0
 20
0.0
 30
0.0
  9
$PUCSXDIR
 10
1.0
 20
0.0
 30
0.0
  9
$PUCSYDIR
 10
0.0
 20
1.0
 30
0.0
  9
$PUCSORTHOREF
  2

  9
$PUCSORTHOVIEW
 70
     0
  9
$PUCSORGTOP
 10
0.0
 20
0.0
 30
0.0
  9
$PUCSORGBOTTOM
 10
0.0
 20
0.0
 30
0.0
  9
$PUCSORGLEFT
 10
0.0
 20
0.0
 30
0.0
  9
$PUCSORGRIGHT
 10
0.0
 20
0.0
 30
0.0
  9
$PUCSORGFRONT
 10
0.0
 20
0.0
 30
0.0
  9
$PUCSORGBACK
 10
0.0
 20
0.0
 30
0.0
  9
$USERI1
 70
     0
  9
$USERI2
 70
     0
  9
$USERI3
 70
     0
  9
$USERI4
 70
     0
  9
$USERI5
 70
     0
  9
$USERR1
 40
0.0
  9
$USERR2
 40
0.0
  9
$USERR3
 40
0.0
  9
$USERR4
 40
0.0
  9
$USERR5
 40
0.0
  9
$WORLDVIEW
 70
     1
  9
$SHADEDGE
 70
     3
  9
$SHADEDIF
 70
    70
  9
$TILEMODE
 70
     1
  9
$MAXACTVP
 70
    64
  9
$PINSBASE
 10
0.0
 20
0.0
 30
0.0
  9
$PLIMCHECK
 70
     0
  9
$PEXTMIN
 10
0.0
 20
0.0
 30
0.0
  9
$PEXTMAX
 10
297.0
 20
210.0
 30
0.0
  9
$PLIMMIN
 10
0.0
 20
0.0
  9
$PLIMMAX
 10
12.0
 20
9.0
  9
$UNITMODE
 70
     0
  9
$VISRETAIN
 70
     1
  9
$PLINEGEN
 70
     0
  9
$PSLTSCALE
 70
     1
  9
$TREEDEPTH
 70
  3020
  9
$CMLSTYLE
  2
Standard
  9
$CMLJUST
 70
     0
  9
$CMLSCALE
 40
1.0
  9
$PROXYGRAPHICS
 70
     1
  9
$MEASUREMENT
 70
     0
  9
$CELWEIGHT
370
    -1
  9
$ENDCAPS
280
     0
  9
$JOINSTYLE
280
     0
  9
$LWDISPLAY
290
     0
  9
$INSUNITS
 70
     1
  9
$HYPERLINKBASE
  1

  9
$STYLESHEET
  1

  9
$XEDIT
290
     1
  9
$CEPSNTYPE
380
     0
  9
$PSTYLEMODE
290
     1
  9
$FINGERPRINTGUID
  2
{FAEB1C30-E019-11D5-929B-00C0DF256EC4}
  9
$VERSIONGUID
  2
{FAEB1C32-E019-11D5-929B-00C0DF256EC4}
  9
$EXTNAMES
290
     1
  9
$PSVPSCALE
 40
0.0
  9
$OLESTARTUP
290
     0
  0
ENDSEC
  0
SECTION
  2
CLASSES
  0
CLASS
  1
ACDBDICTIONARYWDFLT
  2
AcDbDictionaryWithDefault
  3
ObjectDBX Classes
 90
        0
280
     0
281
     0
  0
CLASS
  1
ACDBPLACEHOLDER
  2
AcDbPlaceHolder
  3
ObjectDBX Classes
 90
        0
280
     0
281
     0
  0
CLASS
  1
LAYOUT
  2
AcDbLayout
  3
ObjectDBX Classes
 90
        0
280
     0
281
     0
  0
ENDSEC
  0
SECTION
  2
TABLES
  0
TABLE
  2
VPORT
  5
8
330
0
100
AcDbSymbolTable
 70
     2
  0
VPORT
  5
29
330
8
100
AcDbSymbolTableRecord
100
AcDbViewportTableRecord
  2
*Active
 70
     0
 10
0.0
 20
0.0
 11
1.0
 21
1.0
 12
99.0
 22
105.0
 13
0.0
 23
0.0
 14
1.0
 24
1.0
 15
0.0
 25
0.0
 16
0.0
 26
0.0
 36
1.0
 17
0.0
 27
0.0
 37
0.0
 40
210.0
 41
0.688564
 42
50.0
 43
0.0
 44
0.0
 50
0.0
 51
0.0
 71
     0
 72
   100
 73
     1
 74
     3
 75
     0
 76
     0
 77
     0
 78
     0
281
     0
 65
     0
110
0.0
120
0.0
130
0.0
111
1.0
121
0.0
131
0.0
112
0.0
122
1.0
132
0.0
 79
     0
146
0.0
  0
ENDTAB
  0
TABLE
  2
LTYPE
  5
5
330
0
100
AcDbSymbolTable
 70
     2
  0
LTYPE
  5
14
330
5
100
AcDbSymbolTableRecord
100
AcDbLinetypeTableRecord
  2
ByBlock
 70
     0
  3

 72
    65
 73
     0
 40
0.0
  0
LTYPE
  5
15
330
5
100
AcDbSymbolTableRecord
100
AcDbLinetypeTableRecord
  2
ByLayer
 70
     0
  3

 72
    65
 73
     0
 40
0.0
  0
LTYPE
  5
16
330
5
100
AcDbSymbolTableRecord
100
AcDbLinetypeTableRecord
  2
Continuous
 70
     0
  3
Solid line
 72
    65
 73
     0
 40
0.0
  0
LTYPE
  5
2D
330
5
100
AcDbSymbolTableRecord
100
AcDbLinetypeTableRecord
  2
HIDDEN
 70
     0
  3
__ __ __ __ __ __ __ __ __ __ __ __ _
 72
    65
 73
     2
 40
0.375
 49
0.25
 74
     0
 49
-0.125
 74
     0
  0
ENDTAB
  0
TABLE
  2
LAYER
  5
2
330
0
100
AcDbSymbolTable
 70
     2
  0
LAYER
  5
10
330
2
100
AcDbSymbolTableRecord
100
AcDbLayerTableRecord
  2
0
 70
     0
 62
     7
  6
Continuous
370
    -3
390
F
  0
LAYER
  5
2E
330
2
100
AcDbSymbolTableRecord
100
AcDbLayerTableRecord
  2
1-1
 70
     0
 62
     7
  6
Continuous
370
    -3
390
F
  0
ENDTAB
  0
TABLE
  2
STYLE
  5
3
330
0
100
AcDbSymbolTable
 70
     5
  0
STYLE
  5
11
330
3
100
AcDbSymbolTableRecord
100
AcDbTextStyleTableRecord
  2
Standard
 70
     0
 40
0.0
 41
1.0
 50
0.0
 71
     0
 42
0.2
  3
txt
  4
BIGFONT
  0
STYLE
  5
2A
330
3
100
AcDbSymbolTableRecord
100
AcDbTextStyleTableRecord
  2
MONOSTYLE-H
 70
     0
 40
0.0
 41
1.0
 50
0.0
 71
     0
 42
0.2
  3
monotxt
  4
BIGFONT
  0
STYLE
  5
2B
330
3
100
AcDbSymbolTableRecord
100
AcDbTextStyleTableRecord
  2
TATEGAKI
 70
     4
 40
0.0
 41
1.0
 50
0.0
 71
     0
 42
0.2
  3
txt
  4
BIGFONT
  0
STYLE
  5
2C
330
3
100
AcDbSymbolTableRecord
100
AcDbTextStyleTableRecord
  2
MONOSTYLE-V
 70
     4
 40
0.0
 41
1.0
 50
0.0
 71
     0
 42
0.2
  3
monotxt
  4
BIGFONT
  0
STYLE
  5
36
330
3
100
AcDbSymbolTableRecord
100
AcDbTextStyleTableRecord
  2
STYLE1
 70
     0
 40
0.0
 41
1.0
 50
0.0
 71
     0
 42
0.2
  3
MSGOTHIC.TTC
  4

1001
ACAD
1000
MS Gothic
1071
    32817
  0
ENDTAB
  0
TABLE
  2
VIEW
  5
6
330
0
100
AcDbSymbolTable
 70
     0
  0
ENDTAB
  0
TABLE
  2
UCS
  5
7
330
0
100
AcDbSymbolTable
 70
     0
  0
ENDTAB
  0
TABLE
  2
APPID
  5
9
330
0
100
AcDbSymbolTable
 70
     1
  0
APPID
  5
12
330
9
100
AcDbSymbolTableRecord
100
AcDbRegAppTableRecord
  2
ACAD
 70
     0
  0
ENDTAB
  0
TABLE
  2
DIMSTYLE
  5
A
330
0
100
AcDbSymbolTable
 70
     1
100
AcDbDimStyleTable
  0
DIMSTYLE
105
27
330
A
100
AcDbSymbolTableRecord
100
AcDbDimStyleTableRecord
  2
Standard
 70
     0
340
11
  0
ENDTAB
  0
TABLE
  2
BLOCK_RECORD
  5
1
330
0
100
AcDbSymbolTable
 70
     1
  0
BLOCK_RECORD
  5
1F
330
1
100
AcDbSymbolTableRecord
100
AcDbBlockTableRecord
  2
*Model_Space
340
22
  0
BLOCK_RECORD
  5
1B
330
1
100
AcDbSymbolTableRecord
100
AcDbBlockTableRecord
  2
*Paper_Space
340
1E
  0
ENDTAB
  0
ENDSEC
  0
SECTION
  2
BLOCKS
  0
BLOCK
  5
20
330
1F
100
AcDbEntity
  8
0
100
AcDbBlockBegin
  2
*Model_Space
 70
     0
 71
     0
 10
0.0
 20
0.0
 30
0.0
  3
*Model_Space
  1

  0
ENDBLK
  5
21
330
1F
100
AcDbEntity
  8
0
100
AcDbBlockEnd
  0
BLOCK
  5
1C
330
1B
100
AcDbEntity
 67
     1
  8
0
100
AcDbBlockBegin
  2
*Paper_Space
 70
     0
 71
     0
 10
0.0
 20
0.0
 30
0.0
  3
*Paper_Space
  1

  0
ENDBLK
  5
1D
330
1B
100
AcDbEntity
 67
     1
  8
0
100
AcDbBlockEnd
  0
ENDSEC
  0
SECTION
  2
ENTITIES
  0
LINE
  5
2F
330
1F
100
AcDbEntity
  8
1-1
  6
HIDDEN
 62
     7
370
     0
100
AcDbLine
 10
223.2570630009299
 20
13.00552501095807
 30
0.0
 11
223.2570630009299
 21
131.5437565338947
 31
0.0
  0
LINE
  5
30
330
1F
100
AcDbEntity
  8
1-1
  6
Continuous
 62
     7
370
     0
100
AcDbLine
 10
168.6737300009299
 20
129.5437560109581
 30
0.0
 11
178.673320252539
 21
9.548668817906915
 31
0.0
  0
LINE
  5
31
330
1F
100
AcDbEntity
  8
1-1
  6
Continuous
 62
     7
370
     0
100
AcDbLine
 10
277.7826630009299
 20
128.8509560109581
 30
0.0
 11
267.8408057314228
 21
9.548668776871963
 31
0.0
  0
ARC
  5
32
330
1F
100
AcDbEntity
  8
1-1
  6
Continuous
 62
     7
370
     0
100
AcDbCircle
 10
219.2810440009299
 20
-502.346963989042
 30
0.0
 40
633.90319
100
AcDbArc
 50
84.25278656241225
 51
95.93483586451332
  0
ARC
  5
33
330
1F
100
AcDbEntity
  8
1-1
  6
Continuous
 62
     7
370
     0
100
AcDbCircle
 10
223.25706300093
 20
-276.2254749890419
 30
0.0
 40
289.231
100
AcDbArc
 50
81.13274140516865
 51
98.8672585970815
  0
ARC
  5
34
330
1F
100
AcDbEntity
  8
1-1
  6
Continuous
 62
     7
370
     0
100
AcDbCircle
 10
223.25706300093
 20
-276.2254749890419
 30
0.0
 40
294.230769
100
AcDbArc
 50
80.22588321216509
 51
99.60902305562935
  0
LINE
  5
35
330
1F
100
AcDbEntity
  8
1-1
  6
Continuous
 62
     7
370
     0
100
AcDbLine
 10
273.2069513305457
 20
13.7344430723865
 30
0.0
 11
282.7599012161955
 21
128.3698417001834
 31
0.0
  0
TEXT
  5
37
330
1F
100
AcDbEntity
  8
1-1
  6
Continuous
 62
     7
370
     9
100
AcDbText
 10
211.8652130009276
 20
79.93846694823954
 30
0.0
 40
8.5
  1
後Ｌ
 41
0.9058823529411765
  7
STYLE1
 72
     1
 11
221.1860630009276
 21
78.38575601073954
 31
0.0
100
AcDbText
 73
     1
  0
LINE
  5
38
330
1F
100
AcDbEntity
  8
1-1
  6
Continuous
 62
     7
370
     0
100
AcDbLine
 10
162.5081820501108
 20
22.90640907310594
 30
0.0
 11
153.7371672186379
 21
128.1585907117266
 31
0.0
  0
ARC
  5
39
330
1F
100
AcDbEntity
  8
1-1
  6
Continuous
 62
     7
370
     0
100
AcDbCircle
 10
172.4736396349501
 20
23.73686384295716
 30
0.0
 40
10.0
100
AcDbArc
 50
184.7636415257968
 51
279.6090230556296
  0
ARC
  5
3A
330
1F
100
AcDbEntity
  8
1-1
  6
Continuous
 62
     7
370
     0
100
AcDbCircle
 10
251.5166280445241
 20
165.5747894972549
 30
0.0
 40
26.646642
100
AcDbArc
 50
282.7500000000001
 51
23.11248799999983
  0
LINE
  5
3B
330
1F
100
AcDbEntity
  8
1-1
  6
HIDDEN
 62
     7
370
     0
100
AcDbLine
 10
174.6585987662449
 20
161.6153617274678
 30
0.0
 11
282.9149646363857
 21
161.6153617274678
 31
0.0
  0
ARC
  5
3C
330
1F
100
AcDbEntity
  8
1-1
  6
Continuous
 62
     7
370
     0
100
AcDbCircle
 10
193.6023220445241
 20
161.8877824972549
 30
0.0
 40
18.868793
100
AcDbArc
 50
183.7875059999999
 51
230.7375030000001
  0
ARC
  5
3D
330
1F
100
AcDbEntity
  8
1-1
  6
Continuous
 62
     7
370
     0
100
AcDbCircle
 10
193.6023220445241
 20
161.8877824972549
 30
0.0
 40
18.868793
100
AcDbArc
 50
183.7875059999999
 51
230.7375030000001
  0
ARC
  5
3E
330
1F
100
AcDbEntity
  8
1-1
  6
Continuous
 62
     7
370
     0
100
AcDbCircle
 10
197.5508310445241
 20
179.6943074972549
 30
0.0
 40
36.100573
100
AcDbArc
 50
243.8874970000001
 51
267.2742210779985
  0
ARC
  5
3F
330
1F
100
AcDbEntity
  8
1-1
  6
Continuous
 62
     7
370
     0
100
AcDbCircle
 10
196.8470320445241
 20
285.1820264972549
 30
0.0
 40
105.930922
100
AcDbArc
 50
268.800003
 51
275.162498
  0
ARC
  5
40
330
1F
100
AcDbEntity
  8
1-1
  6
Continuous
 62
     7
370
     0
100
AcDbCircle
 10
194.0241220445242
 20
155.6364294972549
 30
0.0
 40
23.645595
100
AcDbArc
 50
88.56249999999997
 51
120.3874970000002
  0
ARC
  5
41
330
1F
100
AcDbEntity
  8
1-1
  6
Continuous
 62
     7
370
     0
100
AcDbCircle
 10
194.0241220445242
 20
155.6364294972549
 30
0.0
 40
28.646
100
AcDbArc
 50
89.09228168725265
 51
121.975525
  0
ARC
  5
42
330
1F
100
AcDbEntity
  8
1-1
  6
Continuous
 62
     7
370
     0
100
AcDbCircle
 10
193.0075690445241
 20
161.4645444972549
 30
0.0
 40
23.172872
100
AcDbArc
 50
185.4711692426978
 51
232.6458490578524
  0
ARC
  5
43
330
1F
100
AcDbEntity
  8
1-1
  6
Continuous
 62
     7
370
     0
100
AcDbCircle
 10
189.7773520445241
 20
162.9595064972549
 30
0.0
 40
20.18
100
AcDbArc
 50
122.7579350000001
 51
190.5775803740781
  0
ARC
  5
44
330
1F
100
AcDbEntity
  8
1-1
  6
Continuous
 62
     7
370
     0
100
AcDbCircle
 10
189.7773520445241
 20
162.9595064972549
 30
0.0
 40
15.180374
100
AcDbArc
 50
120.5375060000003
 51
188.7749939999999
  0
ARC
  5
45
330
1F
100
AcDbEntity
  8
1-1
  6
Continuous
 62
     7
370
     0
100
AcDbCircle
 10
-1004.441112955476
 20
-13456.46740950274
 30
0.0
 40
13647.886818
100
AcDbArc
 50
84.72872060273492
 51
84.9631758825135
  0
ARC
  5
46
330
1F
100
AcDbEntity
  8
1-1
  6
Continuous
 62
     7
370
     0
100
AcDbCircle
 10
196.8470320445241
 20
285.1820264972549
 30
0.0
 40
100.931
100
AcDbArc
 50
268.6550030675311
 51
275.3056695553951
  0
ARC
  5
47
330
1F
100
AcDbEntity
  8
1-1
  6
Continuous
 62
     7
370
     0
100
AcDbCircle
 10
247.6745320445241
 20
191.0195294972549
 30
0.0
 40
57.345
100
AcDbArc
 50
271.7342796620525
 51
276.3615226559527
  0
ARC
  5
48
330
1F
100
AcDbEntity
  8
1-1
  6
Continuous
 62
     7
370
     0
100
AcDbCircle
 10
247.6745320445241
 20
191.0195294972549
 30
0.0
 40
52.345371
100
AcDbArc
 50
261.7639577390947
 51
280.712502
  0
ARC
  5
49
330
1F
100
AcDbEntity
  8
1-1
  6
Continuous
 62
     7
370
     0
100
AcDbCircle
 10
251.5166280445241
 20
165.5747894972549
 30
0.0
 40
31.647
100
AcDbArc
 50
274.5523464178668
 51
23.8670254202646
  0
ARC
  5
4A
330
1F
100
AcDbEntity
  8
1-1
  6
Continuous
 62
     7
370
     0
100
AcDbCircle
 10
257.3793870445242
 20
164.0006414972549
 30
0.0
 40
27.191
100
AcDbArc
 50
31.92542755918073
 51
92.93387529376531
  0
ARC
  5
4B
330
1F
100
AcDbEntity
  8
1-1
  6
Continuous
 62
     7
370
     0
100
AcDbCircle
 10
257.3793870445242
 20
164.0006414972549
 30
0.0
 40
22.191346
100
AcDbArc
 50
32.85000599999998
 51
93.10000600000022
  0
ARC
  5
4C
330
1F
100
AcDbEntity
  8
1-1
  6
Continuous
 62
     7
370
     0
100
AcDbCircle
 10
259.0145300445241
 20
64.05203749725489
 30
0.0
 40
127.14
100
AcDbArc
 50
91.36419164213281
 51
105.5106882525478
  0
ARC
  5
4D
330
1F
100
AcDbEntity
  8
1-1
  6
Continuous
 62
     7
370
     0
100
AcDbCircle
 10
259.0145300445241
 20
64.05203749725489
 30
0.0
 40
122.140395
100
AcDbArc
 50
91.33749399999998
 51
105.587494
  0
ARC
  5
4E
330
1F
100
AcDbEntity
  8
1-1
  6
Continuous
 62
     7
370
     0
100
AcDbCircle
 10
207.5894670445241
 20
265.9282354972549
 30
0.0
 40
81.25700000000001
100
AcDbArc
 50
269.0061323335152
 51
282.3832317317693
  0
ARC
  5
4F
330
1F
100
AcDbEntity
  8
1-1
  6
Continuous
 62
     7
370
     0
100
AcDbCircle
 10
207.5894670445241
 20
265.9282354972549
 30
0.0
 40
86.25740500000001
100
AcDbArc
 50
269.1875
 51
282.474998
  0
ARC
  5
50
330
1F
100
AcDbEntity
  8
1-1
  6
Continuous
 62
     7
370
     0
100
AcDbCircle
 10
612.7817390445241
 20
4067.676737497255
 30
0.0
 40
3946.131301
100
AcDbArc
 50
263.9348144471573
 51
264.5954080596794
  0
ARC
  5
51
330
1F
100
AcDbEntity
  8
1-1
  6
Continuous
 62
     7
370
     0
100
AcDbCircle
 10
197.5508310445241
 20
179.6943074972549
 30
0.0
 40
41.101
100
AcDbArc
 50
243.0880411653748
 51
264.7537539999999
  0
ARC
  5
52
330
1F
100
AcDbEntity
  8
1-1
  6
Continuous
 62
     7
370
     0
100
AcDbCircle
 10
197.5508310445241
 20
179.6943074972549
 30
0.0
 40
41.101
100
AcDbArc
 50
263.513611
 51
264.7537539999999
  0
TEXT
  5
53
330
1F
100
AcDbEntity
  8
1-1
  6
Continuous
 62
     7
370
     9
100
AcDbText
 10
218.7932451479245
 20
150.950514832348
 30
0.0
 40
8.5
  1
底Ｌ
 41
0.9058823529411765
  7
STYLE1
 72
     1
 11
228.0948451479245
 21
149.397803894848
 31
0.0
100
AcDbText
 73
     1
  0
LINE
  5
54
330
1F
100
AcDbEntity
  8
1-1
  6
HIDDEN
 62
     7
370
     0
100
AcDbLine
 10
214.774663471921
 20
184.9895364633581
 30
0.0
 11
214.774663471921
 21
136.8518130951267
 31
0.0
  0
LINE
  5
55
330
1F
100
AcDbEntity
  8
1-1
  6
Continuous
 62
     7
370
     0
100
AcDbLine
 10
113.2880863199979
 20
11.91663742215364
 30
0.0
 11
145.4164552407989
 21
42.57673988327258
 31
0.0
  0
TEXT
  5
56
330
1F
100
AcDbEntity
  8
1-1
  6
Continuous
 62
     7
370
     9
100
AcDbText
 10
67.07745509497676
 20
58.74092754532942
 30
0.0
 40
8.5
  1
甲Ｌ
 41
0.9058823529411765
  7
STYLE1
 72
     1
 11
76.88725509497675
 21
57.18821660782942
 31
0.0
100
AcDbText
 73
     1
  0
ARC
  5
57
330
1F
100
AcDbEntity
  8
1-1
  6
Continuous
 62
     7
370
     0
100
AcDbCircle
 10
82.22310760763571
 20
50.73736590514621
 30
0.0
 40
45.605
100
AcDbArc
 50
73.06075599539678
 51
90.35733859912193
  0
ARC
  5
58
330
1F
100
AcDbEntity
  8
1-1
  6
Continuous
 62
     7
370
     0
100
AcDbCircle
 10
82.22310760763571
 20
50.73736590514621
 30
0.0
 40
40.605346
100
AcDbArc
 50
72.02499400000002
 51
90.487488
  0
ARC
  5
59
330
1F
100
AcDbEntity
  8
1-1
  6
Continuous
 62
     7
370
     0
100
AcDbCircle
 10
79.8998826076357
 20
33.67763690514623
 30
0.0
 40
57.697471
100
AcDbArc
 50
88.02499400000005
 51
105.1875000000001
  0
LINE
  5
5A
330
1F
100
AcDbEntity
  8
1-1
  6
HIDDEN
 62
     7
370
     0
100
AcDbLine
 10
76.8766816076357
 20
96.38988913010228
 30
0.0
 11
76.8766816076357
 21
31.14250409436765
 31
0.0
  0
ARC
  5
5B
330
1F
100
AcDbEntity
  8
1-1
  6
Continuous
 62
     7
370
     0
100
AcDbCircle
 10
78.92946563101373
 20
46.36102562429907
 30
0.0
 40
50.07096070507256
100
AcDbArc
 50
86.5545014297426
 51
113.0776599294901
  0
LINE
  5
5C
330
1F
100
AcDbEntity
  8
1-1
  6
Continuous
 62
     7
370
     0
100
AcDbLine
 10
120.7821504927181
 20
12.15684005915173
 30
0.0
 11
142.8675641135355
 21
33.23295027749673
 31
0.0
  0
ARC
  5
5D
330
1F
100
AcDbEntity
  8
1-1
  6
Continuous
 62
     7
370
     0
100
AcDbCircle
 10
70.72857724361077
 20
20.73458452680214
 30
0.0
 40
72.71025048537079
100
AcDbArc
 50
9.562851572346519
 51
70.70530949506636
  0
ARC
  5
5E
330
1F
100
AcDbEntity
  8
1-1
  6
Continuous
 62
     7
370
     0
100
AcDbCircle
 10
71.21593378977747
 20
21.01151127530515
 30
0.0
 40
77.27079958507866
100
AcDbArc
 50
16.20568526197962
 51
71.67494111146233
  0
LINE
  5
5F
330
1F
100
AcDbEntity
  8
1-1
  6
Continuous
 62
     7
370
     0
100
AcDbLine
 10
40.46527689527355
 20
11.91663742215365
 30
0.0
 11
8.916970512480646
 21
42.02318620325143
 31
0.0
  0
LINE
  5
60
330
1F
100
AcDbEntity
  8
1-1
  6
Continuous
 62
     7
370
     0
100
AcDbLine
 10
32.97121272255328
 20
12.15684005915174
 30
0.0
 11
10.68644199826835
 21
33.42319676133577
 31
0.0
  0
ARC
  5
61
330
1F
100
AcDbEntity
  8
1-1
  6
Continuous
 62
     7
370
     0
100
AcDbCircle
 10
94.96563293169766
 20
6.042683982068276
 30
0.0
 40
88.61531754978404
100
AcDbArc
 50
109.9126619806798
 51
162.0021253786468
  0
ARC
  5
62
330
1F
100
AcDbEntity
  8
1-1
  6
Continuous
 62
     7
370
     0
100
AcDbCircle
 10
96.86417764356307
 20
4.489804228000246
 30
0.0
 40
95.62147250831075
100
AcDbArc
 50
113.1297058231827
 51
156.8885805978977
  0
ARC
  5
63
330
1F
100
AcDbEntity
  8
1-1
  6
Continuous
 62
     7
370
     0
100
AcDbCircle
 10
76.8766816076357
 20
14.28200000012295
 30
0.0
 40
21.86050409424456
100
AcDbArc
 50
64.40723525234044
 51
115.5927647476596
  0
ARC
  5
64
330
1F
100
AcDbEntity
  8
1-1
  6
Continuous
 62
     7
370
     0
100
AcDbCircle
 10
23.69080819188304
 20
-102.9327840268983
 30
0.0
 40
150.5734050954758
100
AcDbArc
 50
49.84851632911332
 51
65.42168501738772
  0
ARC
  5
65
330
1F
100
AcDbEntity
  8
1-1
  6
Continuous
 62
     7
370
     0
100
AcDbCircle
 10
76.8766816076357
 20
15.73400000017138
 30
0.0
 40
15.40850409419628
100
AcDbArc
 50
72.91029459615567
 51
107.0897054038443
  0
ARC
  5
66
330
1F
100
AcDbEntity
  8
1-1
  6
Continuous
 62
     7
370
     0
100
AcDbCircle
 10
22.60041659241389
 20
-107.313438499846
 30
0.0
 40
149.800081592051
100
AcDbArc
 50
52.74299348771021
 51
66.88660643023709
  0
ARC
  5
67
330
1F
100
AcDbEntity
  8
1-1
  6
Continuous
 62
     7
370
     0
100
AcDbCircle
 10
130.0625550233884
 20
-102.9327840268983
 30
0.0
 40
150.5734050954758
100
AcDbArc
 50
114.5783149826123
 51
130.1514836708867
  0
ARC
  5
68
330
1F
100
AcDbEntity
  8
1-1
  6
Continuous
 62
     7
370
     0
100
AcDbCircle
 10
131.1529466228575
 20
-107.313438499846
 30
0.0
 40
149.800081592051
100
AcDbArc
 50
113.1133935697629
 51
127.2570065122898
  0
LINE
  5
69
330
1F
100
AcDbEntity
  8
1-1
  6
HIDDEN
 62
     7
370
     0
100
AcDbLine
 10
76.8766816076357
 20
101.3898891301023
 30
0.0
 11
76.8766816076357
 21
181.5773891301023
 31
0.0
  0
ARC
  5
6A
330
1F
100
AcDbEntity
  8
1-1
  6
Continuous
 62
     7
370
     0
100
AcDbCircle
 10
76.87668160763548
 20
12.48363913010195
 30
0.0
 40
93.9062500000003
100
AcDbArc
 50
64.93803187556591
 51
118.3513758287064
  0
LINE
  5
6B
330
1F
100
AcDbEntity
  8
1-1
  6
Continuous
 62
     7
370
     0
100
AcDbLine
 10
30.36294772177428
 20
178.3711838315459
 30
0.0
 11
37.51533870862266
 21
92.5424919893654
 31
0.0
  0
LINE
  5
6C
330
1F
100
AcDbEntity
  8
1-1
  6
Continuous
 62
     7
370
     0
100
AcDbLine
 10
123.3904154934967
 20
178.371183831546
 30
0.0
 11
116.2380245066483
 21
92.54249198936539
 31
0.0
  0
LINE
  5
6D
330
1F
100
AcDbEntity
  8
1-1
  6
Continuous
 62
     7
370
     0
100
AcDbLine
 10
148.2006613458156
 20
114.9942031732334
 30
0.0
 11
153.2721701004314
 21
175.8523082286237
 31
0.0
  0
LINE
  5
6E
330
1F
100
AcDbEntity
  8
1-1
  6
Continuous
 62
     7
370
     0
100
AcDbLine
 10
153.2721701004314
 20
175.8523082286238
 30
0.0
 11
124.2033829280176
 21
178.2747071596583
 31
0.0
  0
LINE
  5
6F
330
1F
100
AcDbEntity
  8
1-1
  6
Continuous
 62
     7
370
     0
100
AcDbLine
 10
126.6088362528088
 20
96.72419763299675
 30
0.0
 11
116.7033829280176
 21
97.54965224239247
 31
0.0
  0
ARC
  5
70
330
1F
100
AcDbEntity
  8
1-1
  6
Continuous
 62
     7
370
     0
100
AcDbCircle
 10
76.8766816076355
 20
-157.4226108698977
 30
0.0
 40
339.0
100
AcDbArc
 50
81.9730680219745
 51
98.73305441620823
  0
LINE
  5
71
330
1F
100
AcDbEntity
  8
1-1
  6
Continuous
 62
     7
370
     0
100
AcDbLine
 10
32.28271426359817
 20
95.12601243569797
 30
0.0
 11
25.4059504146999
 21
177.6471786224774
 31
0.0
  0
TEXT
  5
72
330
1F
100
AcDbEntity
  8
1-1
  6
Continuous
 62
     7
370
     9
100
AcDbText
 10
66.55133202560067
 20
142.5330998664164
 30
0.0
 40
8.5
  1
前Ｌ
 41
0.9058823529411765
  7
STYLE1
 72
     1
 11
75.83368202560067
 21
140.9803889289164
 31
0.0
100
AcDbText
 73
     1
  0
ARC
  5
73
330
1F
100
AcDbEntity
  8
1-1
  6
Continuous
 62
     7
370
     0
100
AcDbCircle
 10
76.87668160763553
 20
9.408500418301514
 30
0.0
 40
91.98138871180073
100
AcDbArc
 50
64.66390991133059
 51
115.3360900886695
  0
ARC
  5
74
330
1F
100
AcDbEntity
  8
1-1
  6
Continuous
 62
     7
370
     0
100
AcDbCircle
 10
128.2697461809181
 20
116.6551127703081
 30
0.0
 40
20.0
100
AcDbArc
 50
265.2363573576429
 51
355.2363583092739
  0
LINE
  5
75
330
1F
100
AcDbEntity
  8
1-1
  6
Continuous
 62
     3
370
     0
100
AcDbLine
 10
8.198000000230968
 20
198.0
 30
0.0
 11
108.198000000231
 21
198.0
 31
0.0
  0
LINE
  5
76
330
1F
100
AcDbEntity
  8
1-1
  6
Continuous
 62
     3
370
     0
100
AcDbLine
 10
8.198000000230968
 20
198.0
 30
0.0
 11
8.198000000230968
 21
193.0
 31
0.0
  0
LINE
  5
77
330
1F
100
AcDbEntity
  8
1-1
  6
Continuous
 62
     3
370
     0
100
AcDbLine
 10
18.19800000023097
 20
198.0
 30
0.0
 11
18.19800000023097
 21
193.0
 31
0.0
  0
LINE
  5
78
330
1F
100
AcDbEntity
  8
1-1
  6
Continuous
 62
     3
370
     0
100
AcDbLine
 10
28.19800000023097
 20
198.0
 30
0.0
 11
28.19800000023097
 21
193.0
 31
0.0
  0
LINE
  5
79
330
1F
100
AcDbEntity
  8
1-1
  6
Continuous
 62
     3
370
     0
100
AcDbLine
 10
38.19800000023097
 20
198.0
 30
0.0
 11
38.19800000023097
 21
193.0
 31
0.0
  0
LINE
  5
7A
330
1F
100
AcDbEntity
  8
1-1
  6
Continuous
 62
     3
370
     0
100
AcDbLine
 10
48.19800000023097
 20
198.0
 30
0.0
 11
48.19800000023097
 21
193.0
 31
0.0
  0
LINE
  5
7B
330
1F
100
AcDbEntity
  8
1-1
  6
Continuous
 62
     3
370
     0
100
AcDbLine
 10
58.19800000023097
 20
198.0
 30
0.0
 11
58.19800000023097
 21
193.0
 31
0.0
  0
LINE
  5
7C
330
1F
100
AcDbEntity
  8
1-1
  6
Continuous
 62
     3
370
     0
100
AcDbLine
 10
68.19800000023096
 20
198.0
 30
0.0
 11
68.19800000023096
 21
193.0
 31
0.0
  0
LINE
  5
7D
330
1F
100
AcDbEntity
  8
1-1
  6
Continuous
 62
     3
370
     0
100
AcDbLine
 10
78.19800000023096
 20
198.0
 30
0.0
 11
78.19800000023096
 21
193.0
 31
0.0
  0
LINE
  5
7E
330
1F
100
AcDbEntity
  8
1-1
  6
Continuous
 62
     3
370
     0
100
AcDbLine
 10
88.19800000023096
 20
198.0
 30
0.0
 11
88.19800000023096
 21
193.0
 31
0.0
  0
LINE
  5
7F
330
1F
100
AcDbEntity
  8
1-1
  6
Continuous
 62
     3
370
     0
100
AcDbLine
 10
98.19800000023096
 20
198.0
 30
0.0
 11
98.19800000023096
 21
193.0
 31
0.0
  0
LINE
  5
80
330
1F
100
AcDbEntity
  8
1-1
  6
Continuous
 62
     3
370
     0
100
AcDbLine
 10
108.198000000231
 20
198.0
 30
0.0
 11
108.198000000231
 21
193.0
 31
0.0
  0
LINE
  5
81
330
1F
100
AcDbEntity
  8
1-1
  6
Continuous
 62
     3
370
     0
100
AcDbLine
 10
8.198000000230969
 20
98.0
 30
0.0
 11
8.198000000230969
 21
198.0
 31
0.0
  0
LINE
  5
82
330
1F
100
AcDbEntity
  8
1-1
  6
Continuous
 62
     3
370
     0
100
AcDbLine
 10
8.198000000230969
 20
98.0
 30
0.0
 11
13.19800000023097
 21
98.0
 31
0.0
  0
LINE
  5
83
330
1F
100
AcDbEntity
  8
1-1
  6
Continuous
 62
     3
370
     0
100
AcDbLine
 10
8.198000000230969
 20
108.0
 30
0.0
 11
13.19800000023097
 21
108.0
 31
0.0
  0
LINE
  5
84
330
1F
100
AcDbEntity
  8
1-1
  6
Continuous
 62
     3
370
     0
100
AcDbLine
 10
8.198000000230969
 20
118.0
 30
0.0
 11
13.19800000023097
 21
118.0
 31
0.0
  0
LINE
  5
85
330
1F
100
AcDbEntity
  8
1-1
  6
Continuous
 62
     3
370
     0
100
AcDbLine
 10
8.198000000230969
 20
128.0
 30
0.0
 11
13.19800000023097
 21
128.0
 31
0.0
  0
LINE
  5
86
330
1F
100
AcDbEntity
  8
1-1
  6
Continuous
 62
     3
370
     0
100
AcDbLine
 10
8.198000000230969
 20
138.0
 30
0.0
 11
13.19800000023097
 21
138.0
 31
0.0
  0
LINE
  5
87
330
1F
100
AcDbEntity
  8
1-1
  6
Continuous
 62
     3
370
     0
100
AcDbLine
 10
8.198000000230969
 20
148.0
 30
0.0
 11
13.19800000023097
 21
148.0
 31
0.0
  0
LINE
  5
88
330
1F
100
AcDbEntity
  8
1-1
  6
Continuous
 62
     3
370
     0
100
AcDbLine
 10
8.198000000230969
 20
158.0
 30
0.0
 11
13.19800000023097
 21
158.0
 31
0.0
  0
LINE
  5
89
330
1F
100
AcDbEntity
  8
1-1
  6
Continuous
 62
     3
370
     0
100
AcDbLine
 10
8.198000000230969
 20
168.0
 30
0.0
 11
13.19800000023097
 21
168.0
 31
0.0
  0
LINE
  5
8A
330
1F
100
AcDbEntity
  8
1-1
  6
Continuous
 62
     3
370
     0
100
AcDbLine
 10
8.198000000230969
 20
178.0
 30
0.0
 11
13.19800000023097
 21
178.0
 31
0.0
  0
LINE
  5
8B
330
1F
100
AcDbEntity
  8
1-1
  6
Continuous
 62
     3
370
     0
100
AcDbLine
 10
8.198000000230969
 20
188.0
 30
0.0
 11
13.19800000023097
 21
188.0
 31
0.0
  0
LINE
  5
8C
330
1F
100
AcDbEntity
  8
1-1
  6
Continuous
 62
     3
370
     0
100
AcDbLine
 10
8.198000000230969
 20
198.0
 30
0.0
 11
13.19800000023097
 21
198.0
 31
0.0
  0
TEXT
  5
8D
330
1F
100
AcDbEntity
  8
1-1
  6
Continuous
 62
     3
370
     9
100
AcDbText
 10
17.59393500023088
 20
186.725000000003
 30
0.0
 40
2.55
  1
1
 41
0.9058823529411766
  7
STYLE1
 72
     1
 11
18.19800000023088
 21
188.000000000003
 31
0.0
100
AcDbText
 73
     2
  0
TEXT
  5
8E
330
1F
100
AcDbEntity
  8
1-1
  6
Continuous
 62
     3
370
     9
100
AcDbText
 10
27.45995500023145
 20
186.725000000003
 30
0.0
 40
2.55
  1
2
 41
0.9058823529411766
  7
STYLE1
 72
     1
 11
28.19800000023145
 21
188.000000000003
 31
0.0
100
AcDbText
 73
     2
  0
TEXT
  5
8F
330
1F
100
AcDbEntity
  8
1-1
  6
Continuous
 62
     3
370
     9
100
AcDbText
 10
37.47150500023054
 20
186.725000000003
 30
0.0
 40
2.55
  1
3
 41
0.9058823529411766
  7
STYLE1
 72
     1
 11
38.19800000023054
 21
188.000000000003
 31
0.0
100
AcDbText
 73
     2
  0
TEXT
  5
90
330
1F
100
AcDbEntity
  8
1-1
  6
Continuous
 62
     3
370
     9
100
AcDbText
 10
47.45302500023129
 20
186.7250000000012
 30
0.0
 40
2.55
  1
4
 41
0.9058823529411766
  7
STYLE1
 72
     1
 11
48.19800000023129
 21
188.0000000000012
 31
0.0
100
AcDbText
 73
     2
  0
TEXT
  5
91
330
1F
100
AcDbEntity
  8
1-1
  6
Continuous
 62
     3
370
     9
100
AcDbText
 10
57.47150500023145
 20
186.7250000000085
 30
0.0
 40
2.55
  1
5
 41
0.9058823529411766
  7
STYLE1
 72
     1
 11
58.19800000023145
 21
188.0000000000085
 31
0.0
100
AcDbText
 73
     2
  0
TEXT
  5
92
330
1F
100
AcDbEntity
  8
1-1
  6
Continuous
 62
     3
370
     9
100
AcDbText
 10
67.44840500023089
 20
186.7250000000012
 30
0.0
 40
2.55
  1
6
 41
0.9058823529411766
  7
STYLE1
 72
     1
 11
68.19800000023089
 21
188.0000000000012
 31
0.0
100
AcDbText
 73
     2
  0
TEXT
  5
93
330
1F
100
AcDbEntity
  8
1-1
  6
Continuous
 62
     3
370
     9
100
AcDbText
 10
77.45418000023008
 20
186.7249999999976
 30
0.0
 40
2.55
  1
7
 41
0.9058823529411766
  7
STYLE1
 72
     1
 11
78.19800000023008
 21
187.9999999999976
 31
0.0
100
AcDbText
 73
     2
  0
TEXT
  5
94
330
1F
100
AcDbEntity
  8
1-1
  6
Continuous
 62
     3
370
     9
100
AcDbText
 10
87.45880000023438
 20
186.7250000000051
 30
0.0
 40
2.55
  1
8
 41
0.9058823529411766
  7
STYLE1
 72
     1
 11
88.19800000023437
 21
188.0000000000051
 31
0.0
100
AcDbText
 73
     2
  0
TEXT
  5
95
330
1F
100
AcDbEntity
  8
1-1
  6
Continuous
 62
     3
370
     9
100
AcDbText
 10
97.45995500023372
 20
186.7250000000017
 30
0.0
 40
2.55
  1
9
 41
0.9058823529411766
  7
STYLE1
 72
     1
 11
98.19800000023372
 21
188.0000000000017
 31
0.0
100
AcDbText
 73
     2
  0
TEXT
  5
96
330
1F
100
AcDbEntity
  8
1-1
  6
Continuous
 62
     3
370
     9
100
AcDbText
 10
106.6087200002365
 20
186.7250000000085
 30
0.0
 40
2.55
  1
10
 41
0.9058823529411766
  7
STYLE1
 72
     1
 11
108.1980000002365
 21
188.0000000000085
 31
0.0
100
AcDbText
 73
     2
  0
TEXT
  5
97
330
1F
100
AcDbEntity
  8
1-1
  6
Continuous
 62
     3
370
     9
100
AcDbText
 10
17.45995500023042
 20
176.7249999999994
 30
0.0
 40
2.55
  1
2
 41
0.9058823529411766
  7
STYLE1
 72
     1
 11
18.19800000023042
 21
177.9999999999994
 31
0.0
100
AcDbText
 73
     2
  0
TEXT
  5
98
330
1F
100
AcDbEntity
  8
1-1
  6
Continuous
 62
     3
370
     9
100
AcDbText
 10
17.47150500023156
 20
166.7249999999994
 30
0.0
 40
2.55
  1
3
 41
0.9058823529411766
  7
STYLE1
 72
     1
 11
18.19800000023156
 21
167.9999999999994
 31
0.0
100
AcDbText
 73
     2
  0
TEXT
  5
99
330
1F
100
AcDbEntity
  8
1-1
  6
Continuous
 62
     3
370
     9
100
AcDbText
 10
17.4530250002311
 20
156.7249999999976
 30
0.0
 40
2.55
  1
4
 41
0.9058823529411766
  7
STYLE1
 72
     1
 11
18.1980000002311
 21
157.9999999999976
 31
0.0
100
AcDbText
 73
     2
  0
TEXT
  5
9A
330
1F
100
AcDbEntity
  8
1-1
  6
Continuous
 62
     3
370
     9
100
AcDbText
 10
17.47150500023125
 20
146.7249999999997
 30
0.0
 40
2.55
  1
5
 41
0.9058823529411766
  7
STYLE1
 72
     1
 11
18.19800000023125
 21
147.9999999999997
 31
0.0
100
AcDbText
 73
     2
  0
TEXT
  5
9B
330
1F
100
AcDbEntity
  8
1-1
  6
Continuous
 62
     3
370
     9
100
AcDbText
 10
17.44840500023111
 20
136.7250000000012
 30
0.0
 40
2.55
  1
6
 41
0.9058823529411766
  7
STYLE1
 72
     1
 11
18.1980000002311
 21
138.0000000000012
 31
0.0
100
AcDbText
 73
     2
  0
TEXT
  5
9C
330
1F
100
AcDbEntity
  8
1-1
  6
Continuous
 62
     3
370
     9
100
AcDbText
 10
17.45418000023099
 20
126.7249999999994
 30
0.0
 40
2.55
  1
7
 41
0.9058823529411766
  7
STYLE1
 72
     1
 11
18.19800000023099
 21
127.9999999999994
 31
0.0
100
AcDbText
 73
     2
  0
TEXT
  5
9D
330
1F
100
AcDbEntity
  8
1-1
  6
Continuous
 62
     3
370
     9
100
AcDbText
 10
17.45880000023091
 20
116.7250000000007
 30
0.0
 40
2.55
  1
8
 41
0.9058823529411766
  7
STYLE1
 72
     1
 11
18.19800000023091
 21
118.0000000000007
 31
0.0
100
AcDbText
 73
     2
  0
TEXT
  5
9E
330
1F
100
AcDbEntity
  8
1-1
  6
Continuous
 62
     3
370
     9
100
AcDbText
 10
17.45995500023111
 20
106.7249999999976
 30
0.0
 40
2.55
  1
9
 41
0.9058823529411766
  7
STYLE1
 72
     1
 11
18.1980000002311
 21
107.9999999999976
 31
0.0
100
AcDbText
 73
     2
  0
TEXT
  5
9F
330
1F
100
AcDbEntity
  8
1-1
  6
Continuous
 62
     3
370
     9
100
AcDbText
 10
16.60872000023099
 20
96.7249999999994
 30
0.0
 40
2.55
  1
10
 41
0.9058823529411766
  7
STYLE1
 72
     1
 11
18.19800000023099
 21
97.9999999999994
 31
0.0
100
AcDbText
 73
     2
  0
VIEWPORT
  5
A0
330
1B
100
AcDbEntity
 67
     1
  8
0
100
AcDbViewport
 10
148.5
 20
105.0
 30
0.0
 40
297.0
 41
210.0
 68
     1
 69
     1
 12
148.5
 22
105.0
 13
0.0
 23
0.0
 14
0.5
 24
0.5
 15
0.5
 25
0.5
 16
0.0
 26
0.0
 36
1.0
 17
0.0
 27
0.0
 37
0.0
 42
50.0
 43
0.0
 44
0.0
 45
210.0
 50
0.0
 51
0.0
 72
   100
 90
    32800
  1

281
     0
 71
     1
 74
     0
110
0.0
120
0.0
130
0.0
111
1.0
121
0.0
131
0.0
112
0.0
122
1.0
132
0.0
 79
     0
146
0.0
  0
ENDSEC
  0
SECTION
  2
OBJECTS
  0
DICTIONARY
  5
C
330
0
100
AcDbDictionary
281
     1
  3
ACAD_GROUP
350
D
  3
ACAD_LAYOUT
350
1A
  3
ACAD_MLINESTYLE
350
17
  3
ACAD_PLOTSETTINGS
350
19
  3
ACAD_PLOTSTYLENAME
350
E
  0
DICTIONARY
  5
D
102
{ACAD_REACTORS
330
C
102
}
330
C
100
AcDbDictionary
281
     1
  0
DICTIONARY
  5
1A
102
{ACAD_REACTORS
330
C
102
}
330
C
100
AcDbDictionary
281
     1
  3
Layout1
350
1E
  3
Model
350
22
  0
DICTIONARY
  5
17
102
{ACAD_REACTORS
330
C
102
}
330
C
100
AcDbDictionary
281
     1
  3
Standard
350
18
  0
DICTIONARY
  5
19
102
{ACAD_REACTORS
330
C
102
}
330
C
100
AcDbDictionary
281
     1
  0
ACDBDICTIONARYWDFLT
  5
E
102
{ACAD_REACTORS
330
C
102
}
330
C
100
AcDbDictionary
281
     1
  3
Normal
350
F
100
AcDbDictionaryWithDefault
340
F
  0
LAYOUT
  5
1E
102
{ACAD_REACTORS
330
1A
102
}
330
1A
100
AcDbPlotSettings
  1

  2
none_device
  4
ISO_A4_(210.00_x_297.00_MM)
  6

 40
0.0
 41
0.0
 42
0.0
 43
0.0
 44
210.0
 45
297.0
 46
0.0
 47
0.0
 48
0.0
 49
0.0
140
0.0
141
0.0
142
1.0
143
1.0
 70
   692
 72
     1
 73
     1
 74
     5
  7

 75
    16
147
1.0
148
0.0
149
0.0
100
AcDbLayout
  1
Layout1
 70
     1
 71
     1
 10
0.0
 20
0.0
 11
12.0
 21
9.0
 12
0.0
 22
0.0
 32
0.0
 14
0.0
 24
0.0
 34
0.0
 15
297.0
 25
210.0
 35
0.0
146
0.0
 13
0.0
 23
0.0
 33
0.0
 16
1.0
 26
0.0
 36
0.0
 17
0.0
 27
1.0
 37
0.0
 76
     0
330
1B
331
A0
  0
LAYOUT
  5
22
102
{ACAD_REACTORS
330
1A
102
}
330
1A
100
AcDbPlotSettings
  1

  2
none_device
  4
ISO_A4_(210.00_x_297.00_MM)
  6

 40
0.0
 41
0.0
 42
0.0
 43
0.0
 44
210.0
 45
297.0
 46
0.0
 47
0.0
 48
0.0
 49
0.0
140
0.0
141
0.0
142
1.0
143
1.0
 70
  1712
 72
     1
 73
     1
 74
     0
  7

 75
     0
147
1.0
148
0.0
149
0.0
100
AcDbLayout
  1
Model
 70
     0
 71
     0
 10
0.0
 20
0.0
 11
356.4
 21
252.0
 12
0.0
 22
0.0
 32
0.0
 14
0.0
 24
0.0
 34
0.0
 15
356.4
 25
252.0
 35
0.0
146
0.0
 13
0.0
 23
0.0
 33
0.0
 16
1.0
 26
0.0
 36
0.0
 17
0.0
 27
1.0
 37
0.0
 76
     0
330
1F
  0
MLINESTYLE
  5
18
102
{ACAD_REACTORS
330
17
102
}
330
17
100
AcDbMlineStyle
  2
Standard
 70
     0
  3

 62
   256
 51
90.0
 52
90.0
 71
     2
 49
0.5
 62
   256
  6
BYLAYER
 49
-0.5
 62
   256
  6
BYLAYER
  0
ACDBPLACEHOLDER
  5
F
102
{ACAD_REACTORS
330
E
102
}
330
E
  0
ENDSEC
  0
EOF
