  0
SECTION
  2
HEADER
  9
$ACADVER
  1
AC1015
  9
$ACADMAINTVER
 70
     6
  9
$DWGCODEPAGE
  3
ANSI_932
  9
$INSBASE
 10
0.0
 20
0.0
 30
0.0
  9
$EXTMIN
 10
0.0
 20
0.0
 30
0.0
  9
$EXTMAX
 10
356.4
 20
252.0
 30
0.0
  9
$LIMMIN
 10
0.0
 20
0.0
  9
$LIMMAX
 10
356.4
 20
252.0
  9
$ORTHOMODE
 70
     0
  9
$REGENMODE
 70
     1
  9
$FILLMODE
 70
     1
  9
$QTEXTMODE
 70
     0
  9
$MIRRTEXT
 70
     1
  9
$LTSCALE
 40
1.0
  9
$ATTMODE
 70
     1
  9
$TEXTSIZE
 40
0.2
  9
$TRACEWID
 40
0.05
  9
$TEXTSTYLE
  7
Standard
  9
$CLAYER
  8
0
  9
$CELTYPE
  6
ByLayer
  9
$CECOLOR
 62
   256
  9
$CELTSCALE
 40
1.0
  9
$DISPSILH
 70
     0
  9
$DIMSCALE
 40
1.0
  9
$DIMASZ
 40
0.18
  9
$DIMEXO
 40
0.0625
  9
$DIMDLI
 40
0.38
  9
$DIMRND
 40
0.0
  9
$DIMDLE
 40
0.0
  9
$DIMEXE
 40
0.18
  9
$DIMTP
 40
0.0
  9
$DIMTM
 40
0.0
  9
$DIMTXT
 40
0.18
  9
$DIMCEN
 40
0.09
  9
$DIMTSZ
 40
0.0
  9
$DIMTOL
 70
     0
  9
$DIMLIM
 70
     0
  9
$DIMTIH
 70
     1
  9
$DIMTOH
 70
     1
  9
$DIMSE1
 70
     0
  9
$DIMSE2
 70
     0
  9
$DIMTAD
 70
     0
  9
$DIMZIN
 70
     0
  9
$DIMBLK
  1

  9
$DIMASO
 70
     1
  9
$DIMSHO
 70
     1
  9
$DIMPOST
  1

  9
$DIMAPOST
  1

  9
$DIMALT
 70
     0
  9
$DIMALTD
 70
     2
  9
$DIMALTF
 40
25.4
  9
$DIMLFAC
 40
1.0
  9
$DIMTOFL
 70
     0
  9
$DIMTVP
 40
0.0
  9
$DIMTIX
 70
     0
  9
$DIMSOXD
 70
     0
  9
$DIMSAH
 70
     0
  9
$DIMBLK1
  1

  9
$DIMBLK2
  1

  9
$DIMSTYLE
  2
Standard
  9
$DIMCLRD
 70
     0
  9
$DIMCLRE
 70
     0
  9
$DIMCLRT
 70
     0
  9
$DIMTFAC
 40
1.0
  9
$DIMGAP
 40
0.09
  9
$DIMJUST
 70
     0
  9
$DIMSD1
 70
     0
  9
$DIMSD2
 70
     0
  9
$DIMTOLJ
 70
     1
  9
$DIMTZIN
 70
     0
  9
$DIMALTZ
 70
     0
  9
$DIMALTTZ
 70
     0
  9
$DIMUPT
 70
     0
  9
$DIMDEC
 70
     4
  9
$DIMTDEC
 70
     4
  9
$DIMALTU
 70
     2
  9
$DIMALTTD
 70
     2
  9
$DIMTXSTY
  7
Standard
  9
$DIMAUNIT
 70
     0
  9
$DIMADEC
 70
     0
  9
$DIMALTRND
 40
0.0
  9
$DIMAZIN
 70
     0
  9
$DIMDSEP
 70
    46
  9
$DIMATFIT
 70
     3
  9
$DIMFRAC
 70
     0
  9
$DIMLDRBLK
  1

  9
$DIMLUNIT
 70
     2
  9
$DIMLWD
 70
    -2
  9
$DIMLWE
 70
    -2
  9
$DIMTMOVE
 70
     0
  9
$LUNITS
 70
     2
  9
$LUPREC
 70
     4
  9
$SKETCHINC
 40
0.1
  9
$FILLETRAD
 40
0.5
  9
$AUNITS
 70
     0
  9
$AUPREC
 70
     0
  9
$MENU
  1
.
  9
$ELEVATION
 40
0.0
  9
$PELEVATION
 40
0.0
  9
$THICKNESS
 40
0.0
  9
$LIMCHECK
 70
     0
  9
$CHAMFERA
 40
0.5
  9
$CHAMFERB
 40
0.5
  9
$CHAMFERC
 40
1.0
  9
$CHAMFERD
 40
0.0
  9
$SKPOLY
 70
     0
  9
$TDCREATE
 40
2454477.027141204
  9
$TDUCREATE
 40
2454476.652144456
  9
$TDUPDATE
 40
2454477.027141204
  9
$TDUUPDATE
 40
2454476.652144468
  9
$TDINDWG
 40
0.0000000116
  9
$TDUSRTIMER
 40
0.0000000116
  9
$USRTIMER
 70
     1
  9
$ANGBASE
 50
0.0
  9
$ANGDIR
 70
     0
  9
$PDMODE
 70
     0
  9
$PDSIZE
 40
0.0
  9
$PLINEWID
 40
0.0
  9
$SPLFRAME
 70
     0
  9
$SPLINETYPE
 70
     6
  9
$SPLINESEGS
 70
     8
  9
$HANDSEED
  5
A0
  9
$SURFTAB1
 70
     6
  9
$SURFTAB2
 70
     6
  9
$SURFTYPE
 70
     6
  9
$SURFU
 70
     6
  9
$SURFV
 70
     6
  9
$UCSBASE
  2

  9
$UCSNAME
  2

  9
$UCSORG
 10
0.0
 20
0.0
 30
0.0
  9
$UCSXDIR
 10
1.0
 20
0.0
 30
0.0
  9
$UCSYDIR
 10
0.0
 20
1.0
 30
0.0
  9
$UCSORTHOREF
  2

  9
$UCSORTHOVIEW
 70
     0
  9
$UCSORGTOP
 10
0.0
 20
0.0
 30
0.0
  9
$UCSORGBOTTOM
 10
0.0
 20
0.0
 30
0.0
  9
$UCSORGLEFT
 10
0.0
 20
0.0
 30
0.0
  9
$UCSORGRIGHT
 10
0.0
 20
0.0
 30
0.0
  9
$UCSORGFRONT
 10
0.0
 20
0.0
 30
0.0
  9
$UCSORGBACK
 10
0.0
 20
0.0
 30
0.0
  9
$PUCSBASE
  2

  9
$PUCSNAME
  2

  9
$PUCSORG
 10
0.0
 20
0.0
 30
0.0
  9
$PUCSXDIR
 10
1.0
 20
0.0
 30
0.0
  9
$PUCSYDIR
 10
0.0
 20
1.0
 30
0.0
  9
$PUCSORTHOREF
  2

  9
$PUCSORTHOVIEW
 70
     0
  9
$PUCSORGTOP
 10
0.0
 20
0.0
 30
0.0
  9
$PUCSORGBOTTOM
 10
0.0
 20
0.0
 30
0.0
  9
$PUCSORGLEFT
 10
0.0
 20
0.0
 30
0.0
  9
$PUCSORGRIGHT
 10
0.0
 20
0.0
 30
0.0
  9
$PUCSORGFRONT
 10
0.0
 20
0.0
 30
0.0
  9
$PUCSORGBACK
 10
0.0
 20
0.0
 30
0.0
  9
$USERI1
 70
     0
  9
$USERI2
 70
     0
  9
$USERI3
 70
     0
  9
$USERI4
 70
     0
  9
$USERI5
 70
     0
  9
$USERR1
 40
0.0
  9
$USERR2
 40
0.0
  9
$USERR3
 40
0.0
  9
$USERR4
 40
0.0
  9
$USERR5
 40
0.0
  9
$WORLDVIEW
 70
     1
  9
$SHADEDGE
 70
     3
  9
$SHADEDIF
 70
    70
  9
$TILEMODE
 70
     1
  9
$MAXACTVP
 70
    64
  9
$PINSBASE
 10
0.0
 20
0.0
 30
0.0
  9
$PLIMCHECK
 70
     0
  9
$PEXTMIN
 10
0.0
 20
0.0
 30
0.0
  9
$PEXTMAX
 10
297.0
 20
210.0
 30
0.0
  9
$PLIMMIN
 10
0.0
 20
0.0
  9
$PLIMMAX
 10
12.0
 20
9.0
  9
$UNITMODE
 70
     0
  9
$VISRETAIN
 70
     1
  9
$PLINEGEN
 70
     0
  9
$PSLTSCALE
 70
     1
  9
$TREEDEPTH
 70
  3020
  9
$CMLSTYLE
  2
Standard
  9
$CMLJUST
 70
     0
  9
$CMLSCALE
 40
1.0
  9
$PROXYGRAPHICS
 70
     1
  9
$MEASUREMENT
 70
     0
  9
$CELWEIGHT
370
    -1
  9
$ENDCAPS
280
     0
  9
$JOINSTYLE
280
     0
  9
$LWDISPLAY
290
     0
  9
$INSUNITS
 70
     1
  9
$HYPERLINKBASE
  1

  9
$STYLESHEET
  1

  9
$XEDIT
290
     1
  9
$CEPSNTYPE
380
     0
  9
$PSTYLEMODE
290
     1
  9
$FINGERPRINTGUID
  2
{FAEB1C30-E019-11D5-929B-00C0DF256EC4}
  9
$VERSIONGUID
  2
{FAEB1C32-E019-11D5-929B-00C0DF256EC4}
  9
$EXTNAMES
290
     1
  9
$PSVPSCALE
 40
0.0
  9
$OLESTARTUP
290
     0
  0
ENDSEC
  0
SECTION
  2
CLASSES
  0
CLASS
  1
ACDBDICTIONARYWDFLT
  2
AcDbDictionaryWithDefault
  3
ObjectDBX Classes
 90
        0
280
     0
281
     0
  0
CLASS
  1
ACDBPLACEHOLDER
  2
AcDbPlaceHolder
  3
ObjectDBX Classes
 90
        0
280
     0
281
     0
  0
CLASS
  1
LAYOUT
  2
AcDbLayout
  3
ObjectDBX Classes
 90
        0
280
     0
281
     0
  0
ENDSEC
  0
SECTION
  2
TABLES
  0
TABLE
  2
VPORT
  5
8
330
0
100
AcDbSymbolTable
 70
     2
  0
VPORT
  5
29
330
8
100
AcDbSymbolTableRecord
100
AcDbViewportTableRecord
  2
*Active
 70
     0
 10
0.0
 20
0.0
 11
1.0
 21
1.0
 12
99.0
 22
105.0
 13
0.0
 23
0.0
 14
1.0
 24
1.0
 15
0.0
 25
0.0
 16
0.0
 26
0.0
 36
1.0
 17
0.0
 27
0.0
 37
0.0
 40
210.0
 41
0.688564
 42
50.0
 43
0.0
 44
0.0
 50
0.0
 51
0.0
 71
     0
 72
   100
 73
     1
 74
     3
 75
     0
 76
     0
 77
     0
 78
     0
281
     0
 65
     0
110
0.0
120
0.0
130
0.0
111
1.0
121
0.0
131
0.0
112
0.0
122
1.0
132
0.0
 79
     0
146
0.0
  0
ENDTAB
  0
TABLE
  2
LTYPE
  5
5
330
0
100
AcDbSymbolTable
 70
     2
  0
LTYPE
  5
14
330
5
100
AcDbSymbolTableRecord
100
AcDbLinetypeTableRecord
  2
ByBlock
 70
     0
  3

 72
    65
 73
     0
 40
0.0
  0
LTYPE
  5
15
330
5
100
AcDbSymbolTableRecord
100
AcDbLinetypeTableRecord
  2
ByLayer
 70
     0
  3

 72
    65
 73
     0
 40
0.0
  0
LTYPE
  5
16
330
5
100
AcDbSymbolTableRecord
100
AcDbLinetypeTableRecord
  2
Continuous
 70
     0
  3
Solid line
 72
    65
 73
     0
 40
0.0
  0
LTYPE
  5
2D
330
5
100
AcDbSymbolTableRecord
100
AcDbLinetypeTableRecord
  2
HIDDEN
 70
     0
  3
__ __ __ __ __ __ __ __ __ __ __ __ _
 72
    65
 73
     2
 40
0.375
 49
0.25
 74
     0
 49
-0.125
 74
     0
  0
ENDTAB
  0
TABLE
  2
LAYER
  5
2
330
0
100
AcDbSymbolTable
 70
     2
  0
LAYER
  5
10
330
2
100
AcDbSymbolTableRecord
100
AcDbLayerTableRecord
  2
0
 70
     0
 62
     7
  6
Continuous
370
    -3
390
F
  0
LAYER
  5
2E
330
2
100
AcDbSymbolTableRecord
100
AcDbLayerTableRecord
  2
1-1
 70
     0
 62
     7
  6
Continuous
370
    -3
390
F
  0
ENDTAB
  0
TABLE
  2
STYLE
  5
3
330
0
100
AcDbSymbolTable
 70
     5
  0
STYLE
  5
11
330
3
100
AcDbSymbolTableRecord
100
AcDbTextStyleTableRecord
  2
Standard
 70
     0
 40
0.0
 41
1.0
 50
0.0
 71
     0
 42
0.2
  3
txt
  4
BIGFONT
  0
STYLE
  5
2A
330
3
100
AcDbSymbolTableRecord
100
AcDbTextStyleTableRecord
  2
MONOSTYLE-H
 70
     0
 40
0.0
 41
1.0
 50
0.0
 71
     0
 42
0.2
  3
monotxt
  4
BIGFONT
  0
STYLE
  5
2B
330
3
100
AcDbSymbolTableRecord
100
AcDbTextStyleTableRecord
  2
TATEGAKI
 70
     4
 40
0.0
 41
1.0
 50
0.0
 71
     0
 42
0.2
  3
txt
  4
BIGFONT
  0
STYLE
  5
2C
330
3
100
AcDbSymbolTableRecord
100
AcDbTextStyleTableRecord
  2
MONOSTYLE-V
 70
     4
 40
0.0
 41
1.0
 50
0.0
 71
     0
 42
0.2
  3
monotxt
  4
BIGFONT
  0
STYLE
  5
36
330
3
100
AcDbSymbolTableRecord
100
AcDbTextStyleTableRecord
  2
STYLE1
 70
     0
 40
0.0
 41
1.0
 50
0.0
 71
     0
 42
0.2
  3
MSGOTHIC.TTC
  4

1001
ACAD
1000
MS Gothic
1071
    32817
  0
ENDTAB
  0
TABLE
  2
VIEW
  5
6
330
0
100
AcDbSymbolTable
 70
     0
  0
ENDTAB
  0
TABLE
  2
UCS
  5
7
330
0
100
AcDbSymbolTable
 70
     0
  0
ENDTAB
  0
TABLE
  2
APPID
  5
9
330
0
100
AcDbSymbolTable
 70
     1
  0
APPID
  5
12
330
9
100
AcDbSymbolTableRecord
100
AcDbRegAppTableRecord
  2
ACAD
 70
     0
  0
ENDTAB
  0
TABLE
  2
DIMSTYLE
  5
A
330
0
100
AcDbSymbolTable
 70
     1
100
AcDbDimStyleTable
  0
DIMSTYLE
105
27
330
A
100
AcDbSymbolTableRecord
100
AcDbDimStyleTableRecord
  2
Standard
 70
     0
340
11
  0
ENDTAB
  0
TABLE
  2
BLOCK_RECORD
  5
1
330
0
100
AcDbSymbolTable
 70
     1
  0
BLOCK_RECORD
  5
1F
330
1
100
AcDbSymbolTableRecord
100
AcDbBlockTableRecord
  2
*Model_Space
340
22
  0
BLOCK_RECORD
  5
1B
330
1
100
AcDbSymbolTableRecord
100
AcDbBlockTableRecord
  2
*Paper_Space
340
1E
  0
ENDTAB
  0
ENDSEC
  0
SECTION
  2
BLOCKS
  0
BLOCK
  5
20
330
1F
100
AcDbEntity
  8
0
100
AcDbBlockBegin
  2
*Model_Space
 70
     0
 71
     0
 10
0.0
 20
0.0
 30
0.0
  3
*Model_Space
  1

  0
ENDBLK
  5
21
330
1F
100
AcDbEntity
  8
0
100
AcDbBlockEnd
  0
BLOCK
  5
1C
330
1B
100
AcDbEntity
 67
     1
  8
0
100
AcDbBlockBegin
  2
*Paper_Space
 70
     0
 71
     0
 10
0.0
 20
0.0
 30
0.0
  3
*Paper_Space
  1

  0
ENDBLK
  5
1D
330
1B
100
AcDbEntity
 67
     1
  8
0
100
AcDbBlockEnd
  0
ENDSEC
  0
SECTION
  2
ENTITIES
  0
LINE
  5
2F
330
1F
100
AcDbEntity
  8
1-1
  6
HIDDEN
 62
     7
370
     0
100
AcDbLine
 10
73.94293699907013
 20
13.00552501095807
 30
0.0
 11
73.94293699907013
 21
131.5437565338947
 31
0.0
  0
LINE
  5
30
330
1F
100
AcDbEntity
  8
1-1
  6
Continuous
 62
     7
370
     0
100
AcDbLine
 10
128.5262699990701
 20
129.5437560109581
 30
0.0
 11
118.526679747461
 21
9.548668817906915
 31
0.0
  0
LINE
  5
31
330
1F
100
AcDbEntity
  8
1-1
  6
Continuous
 62
     7
370
     0
100
AcDbLine
 10
19.41733699907013
 20
128.8509560109581
 30
0.0
 11
29.35919426857726
 21
9.548668776871963
 31
0.0
  0
ARC
  5
32
330
1F
100
AcDbEntity
  8
1-1
  6
Continuous
 62
     7
370
     0
100
AcDbCircle
 10
77.91895599907014
 20
-502.346963989042
 30
0.0
 40
633.90319
100
AcDbArc
 50
84.06516413548668
 51
95.74721343758776
  0
ARC
  5
33
330
1F
100
AcDbEntity
  8
1-1
  6
Continuous
 62
     7
370
     0
100
AcDbCircle
 10
73.94293699907007
 20
-276.2254749890419
 30
0.0
 40
289.231
100
AcDbArc
 50
81.1327414029185
 51
98.86725859483136
  0
ARC
  5
34
330
1F
100
AcDbEntity
  8
1-1
  6
Continuous
 62
     7
370
     0
100
AcDbCircle
 10
73.94293699907007
 20
-276.2254749890419
 30
0.0
 40
294.230769
100
AcDbArc
 50
80.39097694437065
 51
99.77411678783491
  0
LINE
  5
35
330
1F
100
AcDbEntity
  8
1-1
  6
Continuous
 62
     7
370
     0
100
AcDbLine
 10
23.99304866945431
 20
13.7344430723865
 30
0.0
 11
14.44009878380456
 21
128.3698417001834
 31
0.0
  0
TEXT
  5
37
330
1F
100
AcDbEntity
  8
1-1
  6
Continuous
 62
     7
370
     9
100
AcDbText
 10
66.40048699907243
 20
79.93846694823965
 30
0.0
 40
8.5
  1
後Ｒ
 41
0.9058823529411765
  7
STYLE1
 72
     1
 11
76.01393699907243
 21
78.38575601073966
 31
0.0
100
AcDbText
 73
     1
  0
LINE
  5
38
330
1F
100
AcDbEntity
  8
1-1
  6
Continuous
 62
     7
370
     0
100
AcDbLine
 10
134.6918179498892
 20
22.90640907310594
 30
0.0
 11
143.4628327813621
 21
128.1585907117266
 31
0.0
  0
ARC
  5
39
330
1F
100
AcDbEntity
  8
1-1
  6
Continuous
 62
     7
370
     0
100
AcDbCircle
 10
124.7263603650499
 20
23.73686384295716
 30
0.0
 40
10.0
100
AcDbArc
 50
260.3909769443704
 51
355.2363584742032
  0
ARC
  5
3A
330
1F
100
AcDbEntity
  8
1-1
  6
Continuous
 62
     7
370
     0
100
AcDbCircle
 10
51.12196431717393
 20
165.5747894972549
 30
0.0
 40
26.646642
100
AcDbArc
 50
156.8875120000002
 51
257.2499999999998
  0
LINE
  5
3B
330
1F
100
AcDbEntity
  8
1-1
  6
HIDDEN
 62
     7
370
     0
100
AcDbLine
 10
127.9799935954532
 20
161.6153617274678
 30
0.0
 11
19.72362772531233
 21
161.6153617274678
 31
0.0
  0
ARC
  5
3C
330
1F
100
AcDbEntity
  8
1-1
  6
Continuous
 62
     7
370
     0
100
AcDbCircle
 10
109.0362703171739
 20
161.8877824972549
 30
0.0
 40
18.868793
100
AcDbArc
 50
309.2624969999999
 51
356.2124940000001
  0
ARC
  5
3D
330
1F
100
AcDbEntity
  8
1-1
  6
Continuous
 62
     7
370
     0
100
AcDbCircle
 10
109.0362703171739
 20
161.8877824972549
 30
0.0
 40
18.868793
100
AcDbArc
 50
309.2624969999999
 51
356.2124940000001
  0
ARC
  5
3E
330
1F
100
AcDbEntity
  8
1-1
  6
Continuous
 62
     7
370
     0
100
AcDbCircle
 10
105.0877613171739
 20
179.6943074972549
 30
0.0
 40
36.100573
100
AcDbArc
 50
272.7257789220015
 51
296.112503
  0
ARC
  5
3F
330
1F
100
AcDbEntity
  8
1-1
  6
Continuous
 62
     7
370
     0
100
AcDbCircle
 10
105.7915603171739
 20
285.1820264972549
 30
0.0
 40
105.930922
100
AcDbArc
 50
264.837502
 51
271.199997
  0
ARC
  5
40
330
1F
100
AcDbEntity
  8
1-1
  6
Continuous
 62
     7
370
     0
100
AcDbCircle
 10
108.6144703171739
 20
155.6364294972549
 30
0.0
 40
23.645595
100
AcDbArc
 50
59.61250299999986
 51
91.43750000000006
  0
ARC
  5
41
330
1F
100
AcDbEntity
  8
1-1
  6
Continuous
 62
     7
370
     0
100
AcDbCircle
 10
108.6144703171739
 20
155.6364294972549
 30
0.0
 40
28.646
100
AcDbArc
 50
58.02447499999997
 51
90.90771831274735
  0
ARC
  5
42
330
1F
100
AcDbEntity
  8
1-1
  6
Continuous
 62
     7
370
     0
100
AcDbCircle
 10
109.6310233171739
 20
161.4645444972549
 30
0.0
 40
23.172872
100
AcDbArc
 50
307.3541509421476
 51
354.5288307573022
  0
ARC
  5
43
330
1F
100
AcDbEntity
  8
1-1
  6
Continuous
 62
     7
370
     0
100
AcDbCircle
 10
112.8612403171739
 20
162.9595064972549
 30
0.0
 40
20.18
100
AcDbArc
 50
349.4224196259219
 51
57.2420649999999
  0
ARC
  5
44
330
1F
100
AcDbEntity
  8
1-1
  6
Continuous
 62
     7
370
     0
100
AcDbCircle
 10
112.8612403171739
 20
162.9595064972549
 30
0.0
 40
15.180374
100
AcDbArc
 50
351.2250060000002
 51
59.46249399999972
  0
ARC
  5
45
330
1F
100
AcDbEntity
  8
1-1
  6
Continuous
 62
     7
370
     0
100
AcDbCircle
 10
1307.079705317174
 20
-13456.46740950274
 30
0.0
 40
13647.886818
100
AcDbArc
 50
95.0368241174865
 51
95.27127939726509
  0
ARC
  5
46
330
1F
100
AcDbEntity
  8
1-1
  6
Continuous
 62
     7
370
     0
100
AcDbCircle
 10
105.7915603171739
 20
285.1820264972549
 30
0.0
 40
100.931
100
AcDbArc
 50
264.6943304446049
 51
271.3449969324689
  0
ARC
  5
47
330
1F
100
AcDbEntity
  8
1-1
  6
Continuous
 62
     7
370
     0
100
AcDbCircle
 10
54.9640603171739
 20
191.0195294972549
 30
0.0
 40
57.345
100
AcDbArc
 50
263.6384773440473
 51
268.2657203379475
  0
ARC
  5
48
330
1F
100
AcDbEntity
  8
1-1
  6
Continuous
 62
     7
370
     0
100
AcDbCircle
 10
54.9640603171739
 20
191.0195294972549
 30
0.0
 40
52.345371
100
AcDbArc
 50
259.2874979999999
 51
278.2360422609054
  0
ARC
  5
49
330
1F
100
AcDbEntity
  8
1-1
  6
Continuous
 62
     7
370
     0
100
AcDbCircle
 10
51.12196431717393
 20
165.5747894972549
 30
0.0
 40
31.647
100
AcDbArc
 50
156.1329745797354
 51
265.4476535821332
  0
ARC
  5
4A
330
1F
100
AcDbEntity
  8
1-1
  6
Continuous
 62
     7
370
     0
100
AcDbCircle
 10
45.25920531717384
 20
164.0006414972549
 30
0.0
 40
27.191
100
AcDbArc
 50
87.06612470623462
 51
148.0745724408193
  0
ARC
  5
4B
330
1F
100
AcDbEntity
  8
1-1
  6
Continuous
 62
     7
370
     0
100
AcDbCircle
 10
45.25920531717384
 20
164.0006414972549
 30
0.0
 40
22.191346
100
AcDbArc
 50
86.89999399999979
 51
147.149994
  0
ARC
  5
4C
330
1F
100
AcDbEntity
  8
1-1
  6
Continuous
 62
     7
370
     0
100
AcDbCircle
 10
43.62406231717387
 20
64.05203749725489
 30
0.0
 40
127.14
100
AcDbArc
 50
74.48931174745222
 51
88.63580835786718
  0
ARC
  5
4D
330
1F
100
AcDbEntity
  8
1-1
  6
Continuous
 62
     7
370
     0
100
AcDbCircle
 10
43.62406231717387
 20
64.05203749725489
 30
0.0
 40
122.140395
100
AcDbArc
 50
74.41250600000001
 51
88.66250600000004
  0
ARC
  5
4E
330
1F
100
AcDbEntity
  8
1-1
  6
Continuous
 62
     7
370
     0
100
AcDbCircle
 10
95.04912531717389
 20
265.9282354972549
 30
0.0
 40
81.25700000000001
100
AcDbArc
 50
257.6167682682307
 51
270.9938676664848
  0
ARC
  5
4F
330
1F
100
AcDbEntity
  8
1-1
  6
Continuous
 62
     7
370
     0
100
AcDbCircle
 10
95.04912531717389
 20
265.9282354972549
 30
0.0
 40
86.25740500000001
100
AcDbArc
 50
257.525002
 51
270.8125
  0
ARC
  5
50
330
1F
100
AcDbEntity
  8
1-1
  6
Continuous
 62
     7
370
     0
100
AcDbCircle
 10
-310.1431466828261
 20
4067.676737497255
 30
0.0
 40
3946.131301
100
AcDbArc
 50
275.4045919403206
 51
276.0651855528427
  0
ARC
  5
51
330
1F
100
AcDbEntity
  8
1-1
  6
Continuous
 62
     7
370
     0
100
AcDbCircle
 10
105.0877613171739
 20
179.6943074972549
 30
0.0
 40
41.101
100
AcDbArc
 50
275.246246
 51
296.9119588346252
  0
TEXT
  5
52
330
1F
100
AcDbEntity
  8
1-1
  6
Continuous
 62
     7
370
     9
100
AcDbText
 10
64.94954721376988
 20
150.9505148323483
 30
0.0
 40
8.5
  1
底Ｒ
 41
0.9058823529411765
  7
STYLE1
 72
     1
 11
74.54374721376988
 21
149.3978038948483
 31
0.0
100
AcDbText
 73
     1
  0
LINE
  5
53
330
1F
100
AcDbEntity
  8
1-1
  6
HIDDEN
 62
     7
370
     0
100
AcDbLine
 10
87.86392888977707
 20
184.9895364633581
 30
0.0
 11
87.86392888977707
 21
136.8518130951267
 31
0.0
  0
LINE
  5
54
330
1F
100
AcDbEntity
  8
1-1
  6
Continuous
 62
     7
370
     0
100
AcDbLine
 10
183.9119136800022
 20
11.91663742215364
 30
0.0
 11
151.7835447592011
 21
42.57673988327258
 31
0.0
  0
TEXT
  5
55
330
1F
100
AcDbEntity
  8
1-1
  6
Continuous
 62
     7
370
     9
100
AcDbText
 10
210.2103449050227
 20
58.74092754532942
 30
0.0
 40
8.5
  1
甲Ｒ
 41
0.9058823529411765
  7
STYLE1
 72
     1
 11
220.3127449050227
 21
57.18821660782942
 31
0.0
100
AcDbText
 73
     1
  0
ARC
  5
56
330
1F
100
AcDbEntity
  8
1-1
  6
Continuous
 62
     7
370
     0
100
AcDbCircle
 10
214.9768923923643
 20
50.73736590514621
 30
0.0
 40
45.605
100
AcDbArc
 50
89.64266140087807
 51
106.9392440046032
  0
ARC
  5
57
330
1F
100
AcDbEntity
  8
1-1
  6
Continuous
 62
     7
370
     0
100
AcDbCircle
 10
214.9768923923643
 20
50.73736590514621
 30
0.0
 40
40.605346
100
AcDbArc
 50
89.512512
 51
107.975006
  0
ARC
  5
58
330
1F
100
AcDbEntity
  8
1-1
  6
Continuous
 62
     7
370
     0
100
AcDbCircle
 10
217.3001173923643
 20
33.67763690514623
 30
0.0
 40
57.697471
100
AcDbArc
 50
74.81249999999994
 51
91.97500599999997
  0
LINE
  5
59
330
1F
100
AcDbEntity
  8
1-1
  6
HIDDEN
 62
     7
370
     0
100
AcDbLine
 10
220.3233183923643
 20
96.38988913010228
 30
0.0
 11
220.3233183923643
 21
31.14250409436765
 31
0.0
  0
ARC
  5
5A
330
1F
100
AcDbEntity
  8
1-1
  6
Continuous
 62
     7
370
     0
100
AcDbCircle
 10
218.2705343689863
 20
46.36102562429907
 30
0.0
 40
50.07096070507256
100
AcDbArc
 50
66.92234007050989
 51
93.44549857025741
  0
LINE
  5
5B
330
1F
100
AcDbEntity
  8
1-1
  6
Continuous
 62
     7
370
     0
100
AcDbLine
 10
176.4178495072819
 20
12.15684005915173
 30
0.0
 11
154.3324358864645
 21
33.23295027749673
 31
0.0
  0
ARC
  5
5C
330
1F
100
AcDbEntity
  8
1-1
  6
Continuous
 62
     7
370
     0
100
AcDbCircle
 10
226.4714227563893
 20
20.73458452680214
 30
0.0
 40
72.71025048537079
100
AcDbArc
 50
109.2946905049337
 51
170.4371484276535
  0
ARC
  5
5D
330
1F
100
AcDbEntity
  8
1-1
  6
Continuous
 62
     7
370
     0
100
AcDbCircle
 10
225.9840662102226
 20
21.01151127530515
 30
0.0
 40
77.27079958507866
100
AcDbArc
 50
108.3250588885377
 51
163.7943147380204
  0
LINE
  5
5E
330
1F
100
AcDbEntity
  8
1-1
  6
Continuous
 62
     7
370
     0
100
AcDbLine
 10
256.7347231047265
 20
11.91663742215365
 30
0.0
 11
288.2830294875194
 21
42.02318620325143
 31
0.0
  0
LINE
  5
5F
330
1F
100
AcDbEntity
  8
1-1
  6
Continuous
 62
     7
370
     0
100
AcDbLine
 10
264.2287872774468
 20
12.15684005915174
 30
0.0
 11
286.5135580017317
 21
33.42319676133577
 31
0.0
  0
ARC
  5
60
330
1F
100
AcDbEntity
  8
1-1
  6
Continuous
 62
     7
370
     0
100
AcDbCircle
 10
202.2343670683024
 20
6.042683982068276
 30
0.0
 40
88.61531754978404
100
AcDbArc
 50
17.99787462135327
 51
70.08733801932023
  0
ARC
  5
61
330
1F
100
AcDbEntity
  8
1-1
  6
Continuous
 62
     7
370
     0
100
AcDbCircle
 10
200.335822356437
 20
4.489804228000246
 30
0.0
 40
95.62147250831075
100
AcDbArc
 50
23.11141940210229
 51
66.87029417681727
  0
ARC
  5
62
330
1F
100
AcDbEntity
  8
1-1
  6
Continuous
 62
     7
370
     0
100
AcDbCircle
 10
220.3233183923643
 20
14.28200000012295
 30
0.0
 40
21.86050409424456
100
AcDbArc
 50
64.40723525234044
 51
115.5927647476596
  0
ARC
  5
63
330
1F
100
AcDbEntity
  8
1-1
  6
Continuous
 62
     7
370
     0
100
AcDbCircle
 10
273.509191808117
 20
-102.9327840268983
 30
0.0
 40
150.5734050954758
100
AcDbArc
 50
114.5783149826123
 51
130.1514836708867
  0
ARC
  5
64
330
1F
100
AcDbEntity
  8
1-1
  6
Continuous
 62
     7
370
     0
100
AcDbCircle
 10
220.3233183923643
 20
15.73400000017138
 30
0.0
 40
15.40850409419628
100
AcDbArc
 50
72.91029459615567
 51
107.0897054038443
  0
ARC
  5
65
330
1F
100
AcDbEntity
  8
1-1
  6
Continuous
 62
     7
370
     0
100
AcDbCircle
 10
274.5995834075861
 20
-107.313438499846
 30
0.0
 40
149.800081592051
100
AcDbArc
 50
113.1133935697629
 51
127.2570065122898
  0
ARC
  5
66
330
1F
100
AcDbEntity
  8
1-1
  6
Continuous
 62
     7
370
     0
100
AcDbCircle
 10
167.1374449766117
 20
-102.9327840268983
 30
0.0
 40
150.5734050954758
100
AcDbArc
 50
49.84851632911335
 51
65.42168501738772
  0
ARC
  5
67
330
1F
100
AcDbEntity
  8
1-1
  6
Continuous
 62
     7
370
     0
100
AcDbCircle
 10
166.0470533771426
 20
-107.313438499846
 30
0.0
 40
149.800081592051
100
AcDbArc
 50
52.74299348771019
 51
66.88660643023709
  0
LINE
  5
68
330
1F
100
AcDbEntity
  8
1-1
  6
HIDDEN
 62
     7
370
     0
100
AcDbLine
 10
220.3233183923643
 20
101.3898891301023
 30
0.0
 11
220.3233183923643
 21
181.5773891301023
 31
0.0
  0
ARC
  5
69
330
1F
100
AcDbEntity
  8
1-1
  6
Continuous
 62
     7
370
     0
100
AcDbCircle
 10
220.3233183923646
 20
12.48363913010195
 30
0.0
 40
93.9062500000003
100
AcDbArc
 50
61.64862417129357
 51
115.0619681244341
  0
LINE
  5
6A
330
1F
100
AcDbEntity
  8
1-1
  6
Continuous
 62
     7
370
     0
100
AcDbLine
 10
266.8370522782258
 20
178.3711838315459
 30
0.0
 11
259.6846612913774
 21
92.5424919893654
 31
0.0
  0
LINE
  5
6B
330
1F
100
AcDbEntity
  8
1-1
  6
Continuous
 62
     7
370
     0
100
AcDbLine
 10
173.8095845065034
 20
178.371183831546
 30
0.0
 11
180.9619754933517
 21
92.54249198936539
 31
0.0
  0
LINE
  5
6C
330
1F
100
AcDbEntity
  8
1-1
  6
Continuous
 62
     7
370
     0
100
AcDbLine
 10
148.9993386541844
 20
114.9942031732334
 30
0.0
 11
143.9278298995687
 21
175.8523082286238
 31
0.0
  0
LINE
  5
6D
330
1F
100
AcDbEntity
  8
1-1
  6
Continuous
 62
     7
370
     0
100
AcDbLine
 10
143.9278298995687
 20
175.8523082286238
 30
0.0
 11
172.9966170719824
 21
178.2747071596583
 31
0.0
  0
LINE
  5
6E
330
1F
100
AcDbEntity
  8
1-1
  6
Continuous
 62
     7
370
     0
100
AcDbLine
 10
170.5911637471912
 20
96.72419763299675
 30
0.0
 11
180.4966170719824
 21
97.54965224239247
 31
0.0
  0
ARC
  5
6F
330
1F
100
AcDbEntity
  8
1-1
  6
Continuous
 62
     7
370
     0
100
AcDbCircle
 10
220.3233183923645
 20
-157.4226108698977
 30
0.0
 40
339.0
100
AcDbArc
 50
81.26694558379178
 51
98.0269319780255
  0
LINE
  5
70
330
1F
100
AcDbEntity
  8
1-1
  6
Continuous
 62
     7
370
     0
100
AcDbLine
 10
264.9172857364019
 20
95.12601243569797
 30
0.0
 11
271.7940495853002
 21
177.6471786224774
 31
0.0
  0
TEXT
  5
71
330
1F
100
AcDbEntity
  8
1-1
  6
Continuous
 62
     7
370
     9
100
AcDbText
 10
211.7913679743994
 20
142.5330998664175
 30
0.0
 40
8.5
  1
前Ｒ
 41
0.9058823529411765
  7
STYLE1
 72
     1
 11
221.3663179743994
 21
140.9803889289175
 31
0.0
100
AcDbText
 73
     1
  0
ARC
  5
72
330
1F
100
AcDbEntity
  8
1-1
  6
Continuous
 62
     7
370
     0
100
AcDbCircle
 10
220.3233183923645
 20
9.408500418301514
 30
0.0
 40
91.98138871180073
100
AcDbArc
 50
64.66390991133059
 51
115.3360900886694
  0
ARC
  5
73
330
1F
100
AcDbEntity
  8
1-1
  6
Continuous
 62
     7
370
     0
100
AcDbCircle
 10
168.930253819082
 20
116.6551127703081
 30
0.0
 40
20.0
100
AcDbArc
 50
184.7636416907261
 51
274.7636426423571
  0
LINE
  5
74
330
1F
100
AcDbEntity
  8
1-1
  6
Continuous
 62
     3
370
     0
100
AcDbLine
 10
288.6
 20
198.0
 30
0.0
 11
188.6000000000001
 21
198.0
 31
0.0
  0
LINE
  5
75
330
1F
100
AcDbEntity
  8
1-1
  6
Continuous
 62
     3
370
     0
100
AcDbLine
 10
288.6
 20
198.0
 30
0.0
 11
288.6
 21
193.0
 31
0.0
  0
LINE
  5
76
330
1F
100
AcDbEntity
  8
1-1
  6
Continuous
 62
     3
370
     0
100
AcDbLine
 10
278.6
 20
198.0
 30
0.0
 11
278.6
 21
193.0
 31
0.0
  0
LINE
  5
77
330
1F
100
AcDbEntity
  8
1-1
  6
Continuous
 62
     3
370
     0
100
AcDbLine
 10
268.6
 20
198.0
 30
0.0
 11
268.6
 21
193.0
 31
0.0
  0
LINE
  5
78
330
1F
100
AcDbEntity
  8
1-1
  6
Continuous
 62
     3
370
     0
100
AcDbLine
 10
258.6
 20
198.0
 30
0.0
 11
258.6
 21
193.0
 31
0.0
  0
LINE
  5
79
330
1F
100
AcDbEntity
  8
1-1
  6
Continuous
 62
     3
370
     0
100
AcDbLine
 10
248.6
 20
198.0
 30
0.0
 11
248.6
 21
193.0
 31
0.0
  0
LINE
  5
7A
330
1F
100
AcDbEntity
  8
1-1
  6
Continuous
 62
     3
370
     0
100
AcDbLine
 10
238.6000000000001
 20
198.0
 30
0.0
 11
238.6000000000001
 21
193.0
 31
0.0
  0
LINE
  5
7B
330
1F
100
AcDbEntity
  8
1-1
  6
Continuous
 62
     3
370
     0
100
AcDbLine
 10
228.6000000000001
 20
198.0
 30
0.0
 11
228.6000000000001
 21
193.0
 31
0.0
  0
LINE
  5
7C
330
1F
100
AcDbEntity
  8
1-1
  6
Continuous
 62
     3
370
     0
100
AcDbLine
 10
218.6000000000001
 20
198.0
 30
0.0
 11
218.6000000000001
 21
193.0
 31
0.0
  0
LINE
  5
7D
330
1F
100
AcDbEntity
  8
1-1
  6
Continuous
 62
     3
370
     0
100
AcDbLine
 10
208.6000000000001
 20
198.0
 30
0.0
 11
208.6000000000001
 21
193.0
 31
0.0
  0
LINE
  5
7E
330
1F
100
AcDbEntity
  8
1-1
  6
Continuous
 62
     3
370
     0
100
AcDbLine
 10
198.6000000000001
 20
198.0
 30
0.0
 11
198.6000000000001
 21
193.0
 31
0.0
  0
LINE
  5
7F
330
1F
100
AcDbEntity
  8
1-1
  6
Continuous
 62
     3
370
     0
100
AcDbLine
 10
188.6000000000001
 20
198.0
 30
0.0
 11
188.6000000000001
 21
193.0
 31
0.0
  0
LINE
  5
80
330
1F
100
AcDbEntity
  8
1-1
  6
Continuous
 62
     3
370
     0
100
AcDbLine
 10
288.6
 20
98.0
 30
0.0
 11
288.6
 21
198.0
 31
0.0
  0
LINE
  5
81
330
1F
100
AcDbEntity
  8
1-1
  6
Continuous
 62
     3
370
     0
100
AcDbLine
 10
288.6
 20
98.0
 30
0.0
 11
283.6
 21
98.0
 31
0.0
  0
LINE
  5
82
330
1F
100
AcDbEntity
  8
1-1
  6
Continuous
 62
     3
370
     0
100
AcDbLine
 10
288.6
 20
108.0
 30
0.0
 11
283.6
 21
108.0
 31
0.0
  0
LINE
  5
83
330
1F
100
AcDbEntity
  8
1-1
  6
Continuous
 62
     3
370
     0
100
AcDbLine
 10
288.6
 20
118.0
 30
0.0
 11
283.6
 21
118.0
 31
0.0
  0
LINE
  5
84
330
1F
100
AcDbEntity
  8
1-1
  6
Continuous
 62
     3
370
     0
100
AcDbLine
 10
288.6
 20
128.0
 30
0.0
 11
283.6
 21
128.0
 31
0.0
  0
LINE
  5
85
330
1F
100
AcDbEntity
  8
1-1
  6
Continuous
 62
     3
370
     0
100
AcDbLine
 10
288.6
 20
138.0
 30
0.0
 11
283.6
 21
138.0
 31
0.0
  0
LINE
  5
86
330
1F
100
AcDbEntity
  8
1-1
  6
Continuous
 62
     3
370
     0
100
AcDbLine
 10
288.6
 20
148.0
 30
0.0
 11
283.6
 21
148.0
 31
0.0
  0
LINE
  5
87
330
1F
100
AcDbEntity
  8
1-1
  6
Continuous
 62
     3
370
     0
100
AcDbLine
 10
288.6
 20
158.0
 30
0.0
 11
283.6
 21
158.0
 31
0.0
  0
LINE
  5
88
330
1F
100
AcDbEntity
  8
1-1
  6
Continuous
 62
     3
370
     0
100
AcDbLine
 10
288.6
 20
168.0
 30
0.0
 11
283.6
 21
168.0
 31
0.0
  0
LINE
  5
89
330
1F
100
AcDbEntity
  8
1-1
  6
Continuous
 62
     3
370
     0
100
AcDbLine
 10
288.6
 20
178.0
 30
0.0
 11
283.6
 21
178.0
 31
0.0
  0
LINE
  5
8A
330
1F
100
AcDbEntity
  8
1-1
  6
Continuous
 62
     3
370
     0
100
AcDbLine
 10
288.6
 20
188.0
 30
0.0
 11
283.6
 21
188.0
 31
0.0
  0
LINE
  5
8B
330
1F
100
AcDbEntity
  8
1-1
  6
Continuous
 62
     3
370
     0
100
AcDbLine
 10
288.6
 20
198.0
 30
0.0
 11
283.6
 21
198.0
 31
0.0
  0
TEXT
  5
8C
330
1F
100
AcDbEntity
  8
1-1
  6
Continuous
 62
     3
370
     9
100
AcDbText
 10
277.9959349999892
 20
186.7249999999877
 30
0.0
 40
2.55
  1
1
 41
0.9058823529411766
  7
STYLE1
 72
     1
 11
278.5999999999892
 21
187.9999999999877
 31
0.0
100
AcDbText
 73
     2
  0
TEXT
  5
8D
330
1F
100
AcDbEntity
  8
1-1
  6
Continuous
 62
     3
370
     9
100
AcDbText
 10
267.8619550000068
 20
186.7250000000137
 30
0.0
 40
2.55
  1
2
 41
0.9058823529411766
  7
STYLE1
 72
     1
 11
268.6000000000068
 21
188.0000000000137
 31
0.0
100
AcDbText
 73
     2
  0
TEXT
  5
8E
330
1F
100
AcDbEntity
  8
1-1
  6
Continuous
 62
     3
370
     9
100
AcDbText
 10
257.8735050000102
 20
186.7250000000022
 30
0.0
 40
2.55
  1
3
 41
0.9058823529411766
  7
STYLE1
 72
     1
 11
258.6000000000102
 21
188.0000000000023
 31
0.0
100
AcDbText
 73
     2
  0
TEXT
  5
8F
330
1F
100
AcDbEntity
  8
1-1
  6
Continuous
 62
     3
370
     9
100
AcDbText
 10
247.8550249999628
 20
186.7249999999877
 30
0.0
 40
2.55
  1
4
 41
0.9058823529411766
  7
STYLE1
 72
     1
 11
248.5999999999628
 21
187.9999999999877
 31
0.0
100
AcDbText
 73
     2
  0
TEXT
  5
90
330
1F
100
AcDbEntity
  8
1-1
  6
Continuous
 62
     3
370
     9
100
AcDbText
 10
237.8735049999812
 20
186.7250000000049
 30
0.0
 40
2.55
  1
5
 41
0.9058823529411766
  7
STYLE1
 72
     1
 11
238.5999999999812
 21
188.0000000000049
 31
0.0
100
AcDbText
 73
     2
  0
TEXT
  5
91
330
1F
100
AcDbEntity
  8
1-1
  6
Continuous
 62
     3
370
     9
100
AcDbText
 10
227.8504050000045
 20
186.7250000000098
 30
0.0
 40
2.55
  1
6
 41
0.9058823529411766
  7
STYLE1
 72
     1
 11
228.6000000000045
 21
188.0000000000098
 31
0.0
100
AcDbText
 73
     2
  0
TEXT
  5
92
330
1F
100
AcDbEntity
  8
1-1
  6
Continuous
 62
     3
370
     9
100
AcDbText
 10
217.8561800000041
 20
186.7249999999989
 30
0.0
 40
2.55
  1
7
 41
0.9058823529411766
  7
STYLE1
 72
     1
 11
218.6000000000041
 21
187.9999999999989
 31
0.0
100
AcDbText
 73
     2
  0
TEXT
  5
93
330
1F
100
AcDbEntity
  8
1-1
  6
Continuous
 62
     3
370
     9
100
AcDbText
 10
207.8608000000034
 20
186.7250000000158
 30
0.0
 40
2.55
  1
8
 41
0.9058823529411766
  7
STYLE1
 72
     1
 11
208.6000000000034
 21
188.0000000000158
 31
0.0
100
AcDbText
 73
     2
  0
TEXT
  5
94
330
1F
100
AcDbEntity
  8
1-1
  6
Continuous
 62
     3
370
     9
100
AcDbText
 10
197.861955000012
 20
186.7250000000181
 30
0.0
 40
2.55
  1
9
 41
0.9058823529411766
  7
STYLE1
 72
     1
 11
198.600000000012
 21
188.0000000000181
 31
0.0
100
AcDbText
 73
     2
  0
TEXT
  5
95
330
1F
100
AcDbEntity
  8
1-1
  6
Continuous
 62
     3
370
     9
100
AcDbText
 10
187.0107200000007
 20
186.7250000000049
 30
0.0
 40
2.55
  1
10
 41
0.9058823529411766
  7
STYLE1
 72
     1
 11
188.6000000000007
 21
188.0000000000049
 31
0.0
100
AcDbText
 73
     2
  0
TEXT
  5
96
330
1F
100
AcDbEntity
  8
1-1
  6
Continuous
 62
     3
370
     9
100
AcDbText
 10
277.8619549999962
 20
176.725000000025
 30
0.0
 40
2.55
  1
2
 41
0.9058823529411766
  7
STYLE1
 72
     1
 11
278.5999999999962
 21
178.000000000025
 31
0.0
100
AcDbText
 73
     2
  0
TEXT
  5
97
330
1F
100
AcDbEntity
  8
1-1
  6
Continuous
 62
     3
370
     9
100
AcDbText
 10
277.8735049999915
 20
166.7249999999933
 30
0.0
 40
2.55
  1
3
 41
0.9058823529411766
  7
STYLE1
 72
     1
 11
278.5999999999915
 21
167.9999999999933
 31
0.0
100
AcDbText
 73
     2
  0
TEXT
  5
98
330
1F
100
AcDbEntity
  8
1-1
  6
Continuous
 62
     3
370
     9
100
AcDbText
 10
277.8550250000322
 20
156.7250000000065
 30
0.0
 40
2.55
  1
4
 41
0.9058823529411766
  7
STYLE1
 72
     1
 11
278.6000000000323
 21
158.0000000000065
 31
0.0
100
AcDbText
 73
     2
  0
TEXT
  5
99
330
1F
100
AcDbEntity
  8
1-1
  6
Continuous
 62
     3
370
     9
100
AcDbText
 10
277.8735049999888
 20
146.725000000005
 30
0.0
 40
2.55
  1
5
 41
0.9058823529411766
  7
STYLE1
 72
     1
 11
278.5999999999888
 21
148.000000000005
 31
0.0
100
AcDbText
 73
     2
  0
TEXT
  5
9A
330
1F
100
AcDbEntity
  8
1-1
  6
Continuous
 62
     3
370
     9
100
AcDbText
 10
277.850404999981
 20
136.7249999999996
 30
0.0
 40
2.55
  1
6
 41
0.9058823529411766
  7
STYLE1
 72
     1
 11
278.599999999981
 21
137.9999999999996
 31
0.0
100
AcDbText
 73
     2
  0
TEXT
  5
9B
330
1F
100
AcDbEntity
  8
1-1
  6
Continuous
 62
     3
370
     9
100
AcDbText
 10
277.8561799999972
 20
126.7250000000058
 30
0.0
 40
2.55
  1
7
 41
0.9058823529411766
  7
STYLE1
 72
     1
 11
278.5999999999972
 21
128.0000000000058
 31
0.0
100
AcDbText
 73
     2
  0
TEXT
  5
9C
330
1F
100
AcDbEntity
  8
1-1
  6
Continuous
 62
     3
370
     9
100
AcDbText
 10
277.8608000000064
 20
116.7250000000032
 30
0.0
 40
2.55
  1
8
 41
0.9058823529411766
  7
STYLE1
 72
     1
 11
278.6000000000063
 21
118.0000000000032
 31
0.0
100
AcDbText
 73
     2
  0
TEXT
  5
9D
330
1F
100
AcDbEntity
  8
1-1
  6
Continuous
 62
     3
370
     9
100
AcDbText
 10
277.8619550000078
 20
106.7250000000006
 30
0.0
 40
2.55
  1
9
 41
0.9058823529411766
  7
STYLE1
 72
     1
 11
278.6000000000078
 21
108.0000000000006
 31
0.0
100
AcDbText
 73
     2
  0
TEXT
  5
9E
330
1F
100
AcDbEntity
  8
1-1
  6
Continuous
 62
     3
370
     9
100
AcDbText
 10
277.0107200000102
 20
96.72499999999599
 30
0.0
 40
2.55
  1
10
 41
0.9058823529411766
  7
STYLE1
 72
     1
 11
278.6000000000102
 21
97.99999999999599
 31
0.0
100
AcDbText
 73
     2
  0
VIEWPORT
  5
9F
330
1B
100
AcDbEntity
 67
     1
  8
0
100
AcDbViewport
 10
148.5
 20
105.0
 30
0.0
 40
297.0
 41
210.0
 68
     1
 69
     1
 12
148.5
 22
105.0
 13
0.0
 23
0.0
 14
0.5
 24
0.5
 15
0.5
 25
0.5
 16
0.0
 26
0.0
 36
1.0
 17
0.0
 27
0.0
 37
0.0
 42
50.0
 43
0.0
 44
0.0
 45
210.0
 50
0.0
 51
0.0
 72
   100
 90
    32800
  1

281
     0
 71
     1
 74
     0
110
0.0
120
0.0
130
0.0
111
1.0
121
0.0
131
0.0
112
0.0
122
1.0
132
0.0
 79
     0
146
0.0
  0
ENDSEC
  0
SECTION
  2
OBJECTS
  0
DICTIONARY
  5
C
330
0
100
AcDbDictionary
281
     1
  3
ACAD_GROUP
350
D
  3
ACAD_LAYOUT
350
1A
  3
ACAD_MLINESTYLE
350
17
  3
ACAD_PLOTSETTINGS
350
19
  3
ACAD_PLOTSTYLENAME
350
E
  0
DICTIONARY
  5
D
102
{ACAD_REACTORS
330
C
102
}
330
C
100
AcDbDictionary
281
     1
  0
DICTIONARY
  5
1A
102
{ACAD_REACTORS
330
C
102
}
330
C
100
AcDbDictionary
281
     1
  3
Layout1
350
1E
  3
Model
350
22
  0
DICTIONARY
  5
17
102
{ACAD_REACTORS
330
C
102
}
330
C
100
AcDbDictionary
281
     1
  3
Standard
350
18
  0
DICTIONARY
  5
19
102
{ACAD_REACTORS
330
C
102
}
330
C
100
AcDbDictionary
281
     1
  0
ACDBDICTIONARYWDFLT
  5
E
102
{ACAD_REACTORS
330
C
102
}
330
C
100
AcDbDictionary
281
     1
  3
Normal
350
F
100
AcDbDictionaryWithDefault
340
F
  0
LAYOUT
  5
1E
102
{ACAD_REACTORS
330
1A
102
}
330
1A
100
AcDbPlotSettings
  1

  2
none_device
  4
ISO_A4_(210.00_x_297.00_MM)
  6

 40
0.0
 41
0.0
 42
0.0
 43
0.0
 44
210.0
 45
297.0
 46
0.0
 47
0.0
 48
0.0
 49
0.0
140
0.0
141
0.0
142
1.0
143
1.0
 70
   692
 72
     1
 73
     1
 74
     5
  7

 75
    16
147
1.0
148
0.0
149
0.0
100
AcDbLayout
  1
Layout1
 70
     1
 71
     1
 10
0.0
 20
0.0
 11
12.0
 21
9.0
 12
0.0
 22
0.0
 32
0.0
 14
0.0
 24
0.0
 34
0.0
 15
297.0
 25
210.0
 35
0.0
146
0.0
 13
0.0
 23
0.0
 33
0.0
 16
1.0
 26
0.0
 36
0.0
 17
0.0
 27
1.0
 37
0.0
 76
     0
330
1B
331
9F
  0
LAYOUT
  5
22
102
{ACAD_REACTORS
330
1A
102
}
330
1A
100
AcDbPlotSettings
  1

  2
none_device
  4
ISO_A4_(210.00_x_297.00_MM)
  6

 40
0.0
 41
0.0
 42
0.0
 43
0.0
 44
210.0
 45
297.0
 46
0.0
 47
0.0
 48
0.0
 49
0.0
140
0.0
141
0.0
142
1.0
143
1.0
 70
  1712
 72
     1
 73
     1
 74
     0
  7

 75
     0
147
1.0
148
0.0
149
0.0
100
AcDbLayout
  1
Model
 70
     0
 71
     0
 10
0.0
 20
0.0
 11
356.4
 21
252.0
 12
0.0
 22
0.0
 32
0.0
 14
0.0
 24
0.0
 34
0.0
 15
356.4
 25
252.0
 35
0.0
146
0.0
 13
0.0
 23
0.0
 33
0.0
 16
1.0
 26
0.0
 36
0.0
 17
0.0
 27
1.0
 37
0.0
 76
     0
330
1F
  0
MLINESTYLE
  5
18
102
{ACAD_REACTORS
330
17
102
}
330
17
100
AcDbMlineStyle
  2
Standard
 70
     0
  3

 62
   256
 51
90.0
 52
90.0
 71
     2
 49
0.5
 62
   256
  6
BYLAYER
 49
-0.5
 62
   256
  6
BYLAYER
  0
ACDBPLACEHOLDER
  5
F
102
{ACAD_REACTORS
330
E
102
}
330
E
  0
ENDSEC
  0
EOF
