  0
SECTION
  2
HEADER
  9
$ACADVER
  1
AC1015
  9
$ACADMAINTVER
 70
    13
  9
$DWGCODEPAGE
  3
ANSI_932
  9
$INSBASE
 10
0.0
 20
0.0
 30
0.0
  9
$EXTMIN
 10
215.4875
 20
224.5375000000001
 30
0.0
  9
$EXTMAX
 10
864.7375
 20
713.3
 30
0.0
  9
$LIMMIN
 10
0.0
 20
0.0
  9
$LIMMAX
 10
2850.0
 20
2000.0
  9
$ORTHOMODE
 70
     0
  9
$REGENMODE
 70
     1
  9
$FILLMODE
 70
     1
  9
$QTEXTMODE
 70
     0
  9
$MIRRTEXT
 70
     1
  9
$LTSCALE
 40
10.0
  9
$ATTMODE
 70
     1
  9
$TEXTSIZE
 40
0.0
  9
$TRACEWID
 40
0.05
  9
$TEXTSTYLE
  7
Standard
  9
$CLAYER
  8
0
  9
$CELTYPE
  6
Continuous
  9
$CECOLOR
 62
   256
  9
$CELTSCALE
 40
1.0
  9
$DISPSILH
 70
     0
  9
$DIMSCALE
 40
10.0
  9
$DIMASZ
 40
0.18
  9
$DIMEXO
 40
0.0625
  9
$DIMDLI
 40
0.38
  9
$DIMRND
 40
0.0
  9
$DIMDLE
 40
0.0
  9
$DIMEXE
 40
0.18
  9
$DIMTP
 40
0.0
  9
$DIMTM
 40
0.0
  9
$DIMTXT
 40
0.18
  9
$DIMCEN
 40
0.09
  9
$DIMTSZ
 40
0.0
  9
$DIMTOL
 70
     0
  9
$DIMLIM
 70
     0
  9
$DIMTIH
 70
     1
  9
$DIMTOH
 70
     1
  9
$DIMSE1
 70
     0
  9
$DIMSE2
 70
     0
  9
$DIMTAD
 70
     0
  9
$DIMZIN
 70
     0
  9
$DIMBLK
  1

  9
$DIMASO
 70
     1
  9
$DIMSHO
 70
     1
  9
$DIMPOST
  1

  9
$DIMAPOST
  1

  9
$DIMALT
 70
     0
  9
$DIMALTD
 70
     2
  9
$DIMALTF
 40
25.4
  9
$DIMLFAC
 40
1.0
  9
$DIMTOFL
 70
     0
  9
$DIMTVP
 40
0.0
  9
$DIMTIX
 70
     0
  9
$DIMSOXD
 70
     0
  9
$DIMSAH
 70
     0
  9
$DIMBLK1
  1

  9
$DIMBLK2
  1

  9
$DIMSTYLE
  2
Standard
  9
$DIMCLRD
 70
     0
  9
$DIMCLRE
 70
     0
  9
$DIMCLRT
 70
     0
  9
$DIMTFAC
 40
1.0
  9
$DIMGAP
 40
0.09
  9
$DIMJUST
 70
     0
  9
$DIMSD1
 70
     0
  9
$DIMSD2
 70
     0
  9
$DIMTOLJ
 70
     1
  9
$DIMTZIN
 70
     0
  9
$DIMALTZ
 70
     0
  9
$DIMALTTZ
 70
     0
  9
$DIMUPT
 70
     0
  9
$DIMDEC
 70
     4
  9
$DIMTDEC
 70
     4
  9
$DIMALTU
 70
     2
  9
$DIMALTTD
 70
     2
  9
$DIMTXSTY
  7
Standard
  9
$DIMAUNIT
 70
     0
  9
$DIMADEC
 70
     0
  9
$DIMALTRND
 40
0.0
  9
$DIMAZIN
 70
     0
  9
$DIMDSEP
 70
     0
  9
$DIMATFIT
 70
     3
  9
$DIMFRAC
 70
     0
  9
$DIMLDRBLK
  1

  9
$DIMLUNIT
 70
     2
  9
$DIMLWD
 70
     0
  9
$DIMLWE
 70
     0
  9
$DIMTMOVE
 70
     0
  9
$LUNITS
 70
     2
  9
$LUPREC
 70
     4
  9
$SKETCHINC
 40
0.1
  9
$FILLETRAD
 40
0.0
  9
$AUNITS
 70
     0
  9
$AUPREC
 70
     0
  9
$MENU
  1
acad
  9
$ELEVATION
 40
0.0
  9
$PELEVATION
 40
0.0
  9
$THICKNESS
 40
0.0
  9
$LIMCHECK
 70
     0
  9
$CHAMFERA
 40
0.0
  9
$CHAMFERB
 40
0.0
  9
$CHAMFERC
 40
0.0
  9
$CHAMFERD
 40
0.0
  9
$SKPOLY
 70
     0
  9
$TDCREATE
 40
2453327.772673067
  9
$TDUCREATE
 40
2453327.397673067
  9
$TDUPDATE
 40
2453327.779426353
  9
$TDUUPDATE
 40
2453327.404426353
  9
$TDINDWG
 40
0.0015865625
  9
$TDUSRTIMER
 40
0.0015861921
  9
$USRTIMER
 70
     1
  9
$ANGBASE
 50
0.0
  9
$ANGDIR
 70
     0
  9
$PDMODE
 70
     0
  9
$PDSIZE
 40
0.0
  9
$PLINEWID
 40
0.0
  9
$SPLFRAME
 70
     0
  9
$SPLINETYPE
 70
     6
  9
$SPLINESEGS
 70
     8
  9
$HANDSEED
  5
AE
  9
$SURFTAB1
 70
     6
  9
$SURFTAB2
 70
     6
  9
$SURFTYPE
 70
     6
  9
$SURFU
 70
     6
  9
$SURFV
 70
     6
  9
$UCSBASE
  2

  9
$UCSNAME
  2

  9
$UCSORG
 10
0.0
 20
0.0
 30
0.0
  9
$UCSXDIR
 10
1.0
 20
0.0
 30
0.0
  9
$UCSYDIR
 10
0.0
 20
1.0
 30
0.0
  9
$UCSORTHOREF
  2

  9
$UCSORTHOVIEW
 70
     0
  9
$UCSORGTOP
 10
0.0
 20
0.0
 30
0.0
  9
$UCSORGBOTTOM
 10
0.0
 20
0.0
 30
0.0
  9
$UCSORGLEFT
 10
0.0
 20
0.0
 30
0.0
  9
$UCSORGRIGHT
 10
0.0
 20
0.0
 30
0.0
  9
$UCSORGFRONT
 10
0.0
 20
0.0
 30
0.0
  9
$UCSORGBACK
 10
0.0
 20
0.0
 30
0.0
  9
$PUCSBASE
  2

  9
$PUCSNAME
  2

  9
$PUCSORG
 10
0.0
 20
0.0
 30
0.0
  9
$PUCSXDIR
 10
1.0
 20
0.0
 30
0.0
  9
$PUCSYDIR
 10
0.0
 20
1.0
 30
0.0
  9
$PUCSORTHOREF
  2

  9
$PUCSORTHOVIEW
 70
     0
  9
$PUCSORGTOP
 10
0.0
 20
0.0
 30
0.0
  9
$PUCSORGBOTTOM
 10
0.0
 20
0.0
 30
0.0
  9
$PUCSORGLEFT
 10
0.0
 20
0.0
 30
0.0
  9
$PUCSORGRIGHT
 10
0.0
 20
0.0
 30
0.0
  9
$PUCSORGFRONT
 10
0.0
 20
0.0
 30
0.0
  9
$PUCSORGBACK
 10
0.0
 20
0.0
 30
0.0
  9
$USERI1
 70
     0
  9
$USERI2
 70
     0
  9
$USERI3
 70
     0
  9
$USERI4
 70
     0
  9
$USERI5
 70
     0
  9
$USERR1
 40
0.0
  9
$USERR2
 40
0.0
  9
$USERR3
 40
0.0
  9
$USERR4
 40
0.0
  9
$USERR5
 40
0.0
  9
$WORLDVIEW
 70
     1
  9
$SHADEDGE
 70
     3
  9
$SHADEDIF
 70
    70
  9
$TILEMODE
 70
     1
  9
$MAXACTVP
 70
    16
  9
$PINSBASE
 10
0.0
 20
0.0
 30
0.0
  9
$PLIMCHECK
 70
     0
  9
$PEXTMIN
 10
1.000000000000000E+20
 20
1.000000000000000E+20
 30
1.000000000000000E+20
  9
$PEXTMAX
 10
-1.000000000000000E+20
 20
-1.000000000000000E+20
 30
-1.000000000000000E+20
  9
$PLIMMIN
 10
0.0
 20
0.0
  9
$PLIMMAX
 10
12.0
 20
9.0
  9
$UNITMODE
 70
     0
  9
$VISRETAIN
 70
     0
  9
$PLINEGEN
 70
     1
  9
$PSLTSCALE
 70
     0
  9
$TREEDEPTH
 70
  3020
  9
$CMLSTYLE
  2
Standard
  9
$CMLJUST
 70
     0
  9
$CMLSCALE
 40
1.0
  9
$PROXYGRAPHICS
 70
     0
  9
$MEASUREMENT
 70
     0
  9
$CELWEIGHT
370
     0
  9
$ENDCAPS
280
     0
  9
$JOINSTYLE
280
     0
  9
$LWDISPLAY
290
     0
  9
$INSUNITS
 70
     0
  9
$HYPERLINKBASE
  1

  9
$STYLESHEET
  1

  9
$XEDIT
290
     1
  9
$CEPSNTYPE
380
     0
  9
$PSTYLEMODE
290
     1
  9
$FINGERPRINTGUID
  2

  9
$VERSIONGUID
  2
{ACDF84E0-0688-4067-BBA7-F7A5A5025628}
  9
$EXTNAMES
290
     1
  9
$PSVPSCALE
 40
0.0
  9
$OLESTARTUP
290
     0
  0
ENDSEC
  0
SECTION
  2
CLASSES
  0
CLASS
  1
LWPOLYLINE
  2
AcDbPolyline
  3
AutoCAD 2000
 90
    32768
280
     0
281
     1
  0
CLASS
  1
IMAGE
  2
AcDbRasterImage
  3
ISM
 90
    32895
280
     0
281
     1
  0
CLASS
  1
OLE2FRAME
  2
AcDbOle2Frame
  3
AutoCAD 2000
 90
    32768
280
     0
281
     1
  0
CLASS
  1
HATCH
  2
AcDbHatch
  3
AutoCAD 2000
 90
    32768
280
     0
281
     1
  0
CLASS
  1
DICTIONARYVAR
  2
AcDbDictionaryVar
  3
AutoCAD 2000
 90
        0
280
     0
281
     0
  0
CLASS
  1
RASTERVARIABLES
  2
AcDbRasterVariables
  3
ISM
 90
    32768
280
     0
281
     0
  0
CLASS
  1
IMAGEDEF
  2
AcDbRasterImageDef
  3
ISM
 90
    32768
280
     0
281
     0
  0
CLASS
  1
IMAGEDEF_REACTOR
  2
AcDbRasterImageDefReactor
  3
ISM
 90
    32769
280
     0
281
     0
  0
CLASS
  1
IDBUFFER
  2
AcDbIdBuffer
  3
AutoCAD 2000
 90
    32768
280
     0
281
     0
  0
CLASS
  1
SPATIAL_FILTER
  2
AcDbSpatialFilter
  3
AutoCAD 2000
 90
    32768
280
     0
281
     0
  0
CLASS
  1
XRECORD
  2
AcDbXrecord
  3
AutoCAD 2000
 90
    32768
280
     0
281
     0
  0
CLASS
  1
SORTENTSTABLE
  2
AcDbSortentsTable
  3
AutoCAD 2000
 90
    32768
280
     0
281
     0
  0
CLASS
  1
LAYER_INDEX
  2
AcDbLayerIndex
  3
AutoCAD 2000
 90
    32768
280
     0
281
     0
  0
CLASS
  1
SPATIAL_INDEX
  2
AcDbSpatialIndex
  3
AutoCAD 2000
 90
    32768
280
     0
281
     0
  0
CLASS
  1
OBJECT_PTR
  2
CAseDLPNTableRecord
  3
"ASE-LPNTableRecord"
 90
    32769
280
     0
281
     0
  0
CLASS
  1
LAYOUT
  2
AcDbLayout
  3
AutoCAD 2000
 90
        0
280
     0
281
     0
  0
CLASS
  1
PLOTSETTINGS
  2
AcDbPlotSettings
  3
AutoCAD 2000
 90
    32768
280
     0
281
     0
  0
CLASS
  1
ACDBDICTIONARYWDFLT
  2
AcDbDictionaryWithDefault
  3
AutoCAD 2000
 90
        0
280
     0
281
     0
  0
CLASS
  1
ACDBPLACEHOLDER
  2
AcDbPlaceHolder
  3
AutoCAD 2000
 90
        0
280
     0
281
     0
  0
ENDSEC
  0
SECTION
  2
TABLES
  0
TABLE
  2
VPORT
  5
7
330
0
100
AcDbSymbolTable
 70
     3
  0
VPORT
  5
AD
330
7
100
AcDbSymbolTableRecord
100
AcDbViewportTableRecord
  2
*Active
 70
     0
 10
0.0
 20
0.0
 11
1.0
 21
1.0
 12
847.2151052588834
 22
4.579184000000054
 13
0.0
 23
0.0
 14
1.0
 24
1.0
 15
0.0
 25
0.0
 16
0.0
 26
0.0
 36
1.0
 17
0.0
 27
1000.0
 37
0.0
 40
2000.120395400904
 41
1.529187817258883
 42
50.0
 43
0.0
 44
0.0
 50
0.0
 51
0.0
 71
     0
 72
   100
 73
     1
 74
     1
 75
     0
 76
     0
 77
     0
 78
     0
281
     0
 65
     0
110
0.0
120
0.0
130
0.0
111
1.0
121
0.0
131
0.0
112
0.0
122
1.0
132
0.0
 79
     0
146
0.0
  0
ENDTAB
  0
TABLE
  2
LTYPE
  5
4
330
0
100
AcDbSymbolTable
 70
     1
  0
LTYPE
  5
11
330
4
100
AcDbSymbolTableRecord
100
AcDbLinetypeTableRecord
  2
ByBlock
 70
     0
  3

 72
    65
 73
     0
 40
0.0
  0
LTYPE
  5
12
330
4
100
AcDbSymbolTableRecord
100
AcDbLinetypeTableRecord
  2
ByLayer
 70
     0
  3

 72
    65
 73
     0
 40
0.0
  0
LTYPE
  5
13
330
4
100
AcDbSymbolTableRecord
100
AcDbLinetypeTableRecord
  2
Continuous
 70
     0
  3
Solid line
 72
    65
 73
     0
 40
0.0
  0
ENDTAB
  0
TABLE
  2
LAYER
  5
2
330
0
100
AcDbSymbolTable
 70
     2
  0
LAYER
  5
14
330
2
100
AcDbSymbolTableRecord
100
AcDbLayerTableRecord
  2
0
 70
     0
 62
     7
  6
Continuous
370
    -3
390
1D
  0
LAYER
  5
33
330
2
100
AcDbSymbolTableRecord
100
AcDbLayerTableRecord
  2
検査君２
 70
     0
 62
     7
  6
Continuous
370
    -3
390
1D
  0
ENDTAB
  0
TABLE
  2
STYLE
  5
3
330
0
100
AcDbSymbolTable
 70
     1
  0
STYLE
  5
17
330
3
100
AcDbSymbolTableRecord
100
AcDbTextStyleTableRecord
  2
Standard
 70
     0
 40
0.0
 41
1.0
 50
0.0
 71
     0
 42
0.0
  3
txt
  4

  0
ENDTAB
  0
TABLE
  2
VIEW
  5
5
330
0
100
AcDbSymbolTable
 70
     0
  0
ENDTAB
  0
TABLE
  2
UCS
  5
6
330
0
100
AcDbSymbolTable
 70
     0
  0
ENDTAB
  0
TABLE
  2
APPID
  5
8
330
0
100
AcDbSymbolTable
 70
     1
  0
APPID
  5
16
330
8
100
AcDbSymbolTableRecord
100
AcDbRegAppTableRecord
  2
ACAD
 70
     0
  0
ENDTAB
  0
TABLE
  2
DIMSTYLE
  5
9
330
0
100
AcDbSymbolTable
 70
     1
100
AcDbDimStyleTable
 71
     0
  0
DIMSTYLE
105
18
330
9
100
AcDbSymbolTableRecord
100
AcDbDimStyleTableRecord
  2
Standard
 70
     0
340
17
  0
ENDTAB
  0
TABLE
  2
BLOCK_RECORD
  5
1
330
0
100
AcDbSymbolTable
 70
     1
  0
BLOCK_RECORD
  5
A
330
1
100
AcDbSymbolTableRecord
100
AcDbBlockTableRecord
  2
*MODEL_SPACE
340
20
  0
BLOCK_RECORD
  5
B
330
1
100
AcDbSymbolTableRecord
100
AcDbBlockTableRecord
  2
*PAPER_SPACE
340
21
  0
BLOCK_RECORD
  5
34
330
1
100
AcDbSymbolTableRecord
100
AcDbBlockTableRecord
  2
PSPBLOCK_00000000
340
0
102
{BLKREFS
331
97
102
}
  0
ENDTAB
  0
ENDSEC
  0
SECTION
  2
BLOCKS
  0
BLOCK
  5
D
330
A
100
AcDbEntity
  8
0
100
AcDbBlockBegin
  2
*MODEL_SPACE
 70
     0
 10
0.0
 20
0.0
 30
0.0
  3
*MODEL_SPACE
  1

  0
ENDBLK
  5
E
330
A
100
AcDbEntity
  8
0
100
AcDbBlockEnd
  0
BLOCK
  5
F
330
B
100
AcDbEntity
 67
     1
  8
0
100
AcDbBlockBegin
  2
*PAPER_SPACE
 70
     0
 10
0.0
 20
0.0
 30
0.0
  3
*PAPER_SPACE
  1

  0
ENDBLK
  5
10
330
B
100
AcDbEntity
 67
     1
  8
0
100
AcDbBlockEnd
  0
BLOCK
  5
35
330
34
100
AcDbEntity
  8
検査君２
100
AcDbBlockBegin
  2
PSPBLOCK_00000000
 70
     0
 10
0.0
 20
0.0
 30
0.0
  3
PSPBLOCK_00000000
  1

  0
LINE
  5
36
330
34
100
AcDbEntity
  8
検査君２
  6
Continuous
 62
     0
100
AcDbLine
 10
615.9125
 20
600.375
 30
0.0
 11
608.875
 21
594.7499999999998
 31
0.0
  0
LINE
  5
37
330
34
100
AcDbEntity
  8
検査君２
  6
Continuous
 62
     0
100
AcDbLine
 10
552.325
 20
656.9125
 30
0.0
 11
619.2999999999998
 21
608.5625
 31
0.0
  0
LINE
  5
38
330
34
100
AcDbEntity
  8
検査君２
  6
Continuous
 62
     0
100
AcDbLine
 10
635.6625
 20
513.3875
 30
0.0
 11
645.6875
 21
496.6625
 31
0.0
  0
LINE
  5
39
330
34
100
AcDbEntity
  8
検査君２
  6
Continuous
 62
     0
100
AcDbLine
 10
554.3124999999998
 20
634.125
 30
0.0
 11
608.875
 21
594.7499999999998
 31
0.0
  0
LINE
  5
3A
330
34
100
AcDbEntity
  8
検査君２
  6
Continuous
 62
     0
100
AcDbLine
 10
552.5
 20
637.975
 30
0.0
 11
559.6749999999998
 21
622.7875
 31
0.0
  0
LINE
  5
3B
330
34
100
AcDbEntity
  8
検査君２
  6
Continuous
 62
     0
100
AcDbLine
 10
781.4375
 20
492.8625
 30
0.0
 11
823.4624999999999
 21
493.0375
 31
0.0
  0
LINE
  5
3C
330
34
100
AcDbEntity
  8
検査君２
  6
Continuous
 62
     0
100
AcDbLine
 10
735.0624999999999
 20
478.1
 30
0.0
 11
781.4375
 21
492.8625
 31
0.0
  0
LINE
  5
3D
330
34
100
AcDbEntity
  8
検査君２
  6
Continuous
 62
     0
100
AcDbLine
 10
635.6625
 20
513.3875
 30
0.0
 11
663.8374999999999
 21
561.4625
 31
0.0
  0
LINE
  5
3E
330
34
100
AcDbEntity
  8
検査君２
  6
Continuous
 62
     0
100
AcDbLine
 10
683.4624999999999
 20
618.2625
 30
0.0
 11
641.95
 21
580.8624999999998
 31
0.0
  0
LINE
  5
3F
330
34
100
AcDbEntity
  8
検査君２
  6
Continuous
 62
     0
100
AcDbLine
 10
609.9125
 20
533.75
 30
0.0
 11
635.6625
 21
513.3875
 31
0.0
  0
LINE
  5
40
330
34
100
AcDbEntity
  8
検査君２
  6
Continuous
 62
     0
100
AcDbLine
 10
670.65
 20
606.725
 30
0.0
 11
673.0125000000001
 21
713.3
 31
0.0
  0
LINE
  5
41
330
34
100
AcDbEntity
  8
検査君２
  6
Continuous
 62
     0
100
AcDbLine
 10
388.2624999999998
 20
489.775
 30
0.0
 11
377.625
 21
697.45
 31
0.0
  0
LINE
  5
42
330
34
100
AcDbEntity
  8
検査君２
  6
Continuous
 62
     0
100
AcDbLine
 10
377.625
 20
697.45
 30
0.0
 11
673.0125000000001
 21
713.3
 31
0.0
  0
ELLIPSE
  5
43
330
34
100
AcDbEntity
  8
検査君２
  6
Continuous
 62
     0
100
AcDbEllipse
 10
538.8875
 20
358.1125
 30
0.0
 11
0.0000000000000082
 21
133.5749999999999
 31
0.0
210
0.0
220
0.0
230
1.0
 40
0.7871050000000001
 41
0.0
 42
6.283185307179584
  0
LINE
  5
44
330
34
100
AcDbEntity
  8
検査君２
  6
Continuous
 62
     0
100
AcDbLine
 10
657.2875
 20
495.15
 30
0.0
 11
583.575
 21
504.725
 31
0.0
  0
LINE
  5
45
330
34
100
AcDbEntity
  8
検査君２
  6
Continuous
 62
     0
100
AcDbLine
 10
805.9374999999999
 20
355.6625
 30
0.0
 11
777.0624999999999
 21
279.2375
 31
0.0
  0
LINE
  5
46
330
34
100
AcDbEntity
  8
検査君２
  6
Continuous
 62
     0
100
AcDbLine
 10
555.4124999999998
 20
675.9875
 30
0.0
 11
570.0375
 21
683.0
 31
0.0
  0
LINE
  5
47
330
34
100
AcDbEntity
  8
検査君２
  6
Continuous
 62
     0
100
AcDbLine
 10
570.0375
 20
683.0
 30
0.0
 11
595.0
 21
689.4
 31
0.0
  0
LINE
  5
48
330
34
100
AcDbEntity
  8
検査君２
  6
Continuous
 62
     0
100
AcDbLine
 10
595.0
 20
689.4
 30
0.0
 11
627.0875
 21
655.1625
 31
0.0
  0
LINE
  5
49
330
34
100
AcDbEntity
  8
検査君２
  6
Continuous
 62
     0
100
AcDbLine
 10
708.9375
 20
596.825
 30
0.0
 11
776.5375
 21
556.5624999999998
 31
0.0
  0
LINE
  5
4A
330
34
100
AcDbEntity
  8
検査君２
  6
Continuous
 62
     0
100
AcDbLine
 10
570.6625
 20
660.25
 30
0.0
 11
583.3499999999998
 21
634.5125
 31
0.0
  0
LINE
  5
4B
330
34
100
AcDbEntity
  8
検査君２
  6
Continuous
 62
     0
100
AcDbLine
 10
284.0875
 20
541.8624999999998
 30
0.0
 11
325.7375
 21
566.3624999999998
 31
0.0
  0
LINE
  5
4C
330
34
100
AcDbEntity
  8
検査君２
  6
Continuous
 62
     0
100
AcDbLine
 10
325.7375
 20
566.3624999999998
 30
0.0
 11
383.3624999999998
 21
585.4624999999998
 31
0.0
  0
LINE
  5
4D
330
34
100
AcDbEntity
  8
検査君２
  6
Continuous
 62
     0
100
AcDbLine
 10
608.875
 20
594.7499999999998
 30
0.0
 11
612.5375
 21
602.8624999999998
 31
0.0
  0
LINE
  5
4E
330
34
100
AcDbEntity
  8
検査君２
  6
Continuous
 62
     0
100
AcDbLine
 10
663.8374999999999
 20
561.4625
 30
0.0
 11
708.9375
 21
596.825
 31
0.0
  0
LINE
  5
4F
330
34
100
AcDbEntity
  8
検査君２
  6
Continuous
 62
     0
100
AcDbLine
 10
527.7124999999998
 20
649.2999999999998
 30
0.0
 11
534.7999999999998
 21
611.6624999999998
 31
0.0
  0
LINE
  5
50
330
34
100
AcDbEntity
  8
検査君２
  6
Continuous
 62
     0
100
AcDbLine
 10
602.775
 20
681.3625
 30
0.0
 11
616.1124999999998
 21
677.6124999999998
 31
0.0
  0
LINE
  5
51
330
34
100
AcDbEntity
  8
検査君２
  6
Continuous
 62
     0
100
AcDbLine
 10
616.1124999999998
 20
677.6124999999998
 30
0.0
 11
641.5375
 21
657.075
 31
0.0
  0
LINE
  5
52
330
34
100
AcDbEntity
  8
検査君２
  6
Continuous
 62
     0
100
AcDbLine
 10
286.5375
 20
358.1125
 30
0.0
 11
279.1875
 21
402.2124999999999
 31
0.0
  0
LINE
  5
53
330
34
100
AcDbEntity
  8
検査君２
  6
Continuous
 62
     0
100
AcDbLine
 10
551.1749999999998
 20
590.1499999999998
 30
0.0
 11
618.3125
 21
546.1
 31
0.0
  0
LINE
  5
54
330
34
100
AcDbEntity
  8
検査君２
  6
Continuous
 62
     0
100
AcDbLine
 10
534.7999999999998
 20
611.6624999999998
 30
0.0
 11
551.1749999999998
 21
590.1499999999998
 31
0.0
  0
LINE
  5
55
330
34
100
AcDbEntity
  8
検査君２
  6
Continuous
 62
     0
100
AcDbLine
 10
306.1374999999998
 20
504.4624999999999
 30
0.0
 11
244.8875
 21
500.2124999999998
 31
0.0
  0
LINE
  5
56
330
34
100
AcDbEntity
  8
検査君２
  6
Continuous
 62
     0
100
AcDbLine
 10
254.8999999999999
 20
500.9125
 30
0.0
 11
284.0875
 21
541.8624999999998
 31
0.0
  0
LINE
  5
57
330
34
100
AcDbEntity
  8
検査君２
  6
Continuous
 62
     0
100
AcDbLine
 10
778.7124999999998
 20
458.25
 30
0.0
 11
803.4874999999997
 21
375.2625
 31
0.0
  0
LINE
  5
58
330
34
100
AcDbEntity
  8
検査君２
  6
Continuous
 62
     0
100
AcDbLine
 10
537.7749999999998
 20
650.0499999999998
 30
0.0
 11
527.7124999999998
 21
649.2999999999998
 31
0.0
  0
LINE
  5
59
330
34
100
AcDbEntity
  8
検査君２
  6
Continuous
 62
     0
100
AcDbLine
 10
619.2999999999998
 20
608.5625
 30
0.0
 11
615.9125
 21
600.375
 31
0.0
  0
LINE
  5
5A
330
34
100
AcDbEntity
  8
検査君２
  6
Continuous
 62
     0
100
AcDbLine
 10
535.0875
 20
672.6499999999998
 30
0.0
 11
556.9249999999998
 21
676.2374999999998
 31
0.0
  0
LINE
  5
5B
330
34
100
AcDbEntity
  8
検査君２
  6
Continuous
 62
     0
100
AcDbLine
 10
556.9249999999998
 20
676.2374999999998
 30
0.0
 11
580.95
 21
681.2875
 31
0.0
  0
LINE
  5
5C
330
34
100
AcDbEntity
  8
検査君２
  6
Continuous
 62
     0
100
AcDbLine
 10
612.5375
 20
602.8624999999998
 30
0.0
 11
619.2999999999998
 21
608.5625
 31
0.0
  0
LINE
  5
5D
330
34
100
AcDbEntity
  8
検査君２
  6
Continuous
 62
     0
100
AcDbLine
 10
714.7999999999998
 20
487.3124999999998
 30
0.0
 11
778.7124999999998
 21
458.25
 31
0.0
  0
LINE
  5
5E
330
34
100
AcDbEntity
  8
検査君２
  6
Continuous
 62
     0
100
AcDbLine
 10
823.4624999999999
 20
493.0375
 30
0.0
 11
776.5375
 21
556.5624999999998
 31
0.0
  0
LINE
  5
5F
330
34
100
AcDbEntity
  8
検査君２
  6
Continuous
 62
     0
100
AcDbLine
 10
279.1875
 20
402.2124999999999
 30
0.0
 11
296.3374999999998
 21
441.4125
 31
0.0
  0
LINE
  5
60
330
34
100
AcDbEntity
  8
検査君２
  6
Continuous
 62
     0
100
AcDbLine
 10
580.95
 20
681.2875
 30
0.0
 11
613.025
 21
639.225
 31
0.0
  0
LINE
  5
61
330
34
100
AcDbEntity
  8
検査君２
  6
Continuous
 62
     0
100
AcDbLine
 10
511.8374999999998
 20
675.5625
 30
0.0
 11
529.3375
 21
673.5
 31
0.0
  0
LINE
  5
62
330
34
100
AcDbEntity
  8
検査君２
  6
Continuous
 62
     0
100
AcDbLine
 10
511.8374999999998
 20
675.5625
 30
0.0
 11
518.3749999999998
 21
660.075
 31
0.0
  0
LINE
  5
63
330
34
100
AcDbEntity
  8
検査君２
  6
Continuous
 62
     0
100
AcDbLine
 10
537.7749999999998
 20
650.0499999999998
 30
0.0
 11
552.5
 21
637.975
 31
0.0
  0
LINE
  5
64
330
34
100
AcDbEntity
  8
検査君２
  6
Continuous
 62
     0
100
AcDbLine
 10
518.3749999999998
 20
660.075
 30
0.0
 11
532.7749999999999
 21
649.6749999999998
 31
0.0
  0
LINE
  5
65
330
34
100
AcDbEntity
  8
検査君２
  6
Continuous
 62
     0
100
AcDbLine
 10
777.0624999999999
 20
279.2375
 30
0.0
 11
685.0499999999998
 21
253.6375
 31
0.0
  0
LINE
  5
66
330
34
100
AcDbEntity
  8
検査君２
  6
Continuous
 62
     0
100
AcDbLine
 10
369.8374999999998
 20
487.3124999999998
 30
0.0
 11
306.1374999999998
 21
451.2125
 31
0.0
  0
LINE
  5
67
330
34
100
AcDbEntity
  8
検査君２
  6
Continuous
 62
     0
100
AcDbLine
 10
864.7375
 20
419.3624999999998
 30
0.0
 11
852.4874999999997
 21
453.6624999999999
 31
0.0
  0
LINE
  5
68
330
34
100
AcDbEntity
  8
検査君２
  6
Continuous
 62
     0
100
AcDbLine
 10
545.2374999999998
 20
655.6124999999998
 30
0.0
 11
570.6625
 21
660.25
 31
0.0
  0
LINE
  5
69
330
34
100
AcDbEntity
  8
検査君２
  6
Continuous
 62
     0
100
AcDbLine
 10
545.2374999999998
 20
655.6124999999998
 30
0.0
 11
536.3125
 21
655.75
 31
0.0
  0
LINE
  5
6A
330
34
100
AcDbEntity
  8
検査君２
  6
Continuous
 62
     0
100
AcDbLine
 10
530.35
 20
666.1249999999999
 30
0.0
 11
531.7124999999998
 21
669.8999999999998
 31
0.0
  0
LINE
  5
6B
330
34
100
AcDbEntity
  8
検査君２
  6
Continuous
 62
     0
100
AcDbLine
 10
529.3375
 20
673.5
 30
0.0
 11
532.9374999999998
 21
670.8999999999998
 31
0.0
  0
LINE
  5
6C
330
34
100
AcDbEntity
  8
検査君２
  6
Continuous
 62
     0
100
AcDbLine
 10
530.4
 20
661.6375
 30
0.0
 11
530.35
 21
666.1249999999999
 31
0.0
  0
LINE
  5
6D
330
34
100
AcDbEntity
  8
検査君２
  6
Continuous
 62
     0
100
AcDbLine
 10
536.3125
 20
655.75
 30
0.0
 11
530.4
 21
661.6375
 31
0.0
  0
LINE
  5
6E
330
34
100
AcDbEntity
  8
検査君２
  6
Continuous
 62
     0
100
AcDbLine
 10
708.9375
 20
596.825
 30
0.0
 11
683.4624999999999
 21
618.2625
 31
0.0
  0
LINE
  5
6F
330
34
100
AcDbEntity
  8
検査君２
  6
Continuous
 62
     0
100
AcDbLine
 10
823.4624999999999
 20
493.0375
 30
0.0
 11
852.4874999999997
 21
453.6624999999999
 31
0.0
  0
LINE
  5
70
330
34
100
AcDbEntity
  8
検査君２
  6
Continuous
 62
     0
100
AcDbLine
 10
531.7124999999998
 20
669.8999999999998
 30
0.0
 11
535.0875
 21
672.6499999999998
 31
0.0
  0
LINE
  5
71
330
34
100
AcDbEntity
  8
検査君２
  6
Continuous
 62
     0
100
AcDbLine
 10
641.5375
 20
657.075
 30
0.0
 11
665.1625
 21
601.7749999999998
 31
0.0
  0
LINE
  5
72
330
34
100
AcDbEntity
  8
検査君２
  6
Continuous
 62
     0
100
AcDbLine
 10
559.6749999999998
 20
622.7875
 30
0.0
 11
574.6
 21
619.4874999999998
 31
0.0
  0
LINE
  5
73
330
34
100
AcDbEntity
  8
検査君２
  6
Continuous
 62
     0
100
AcDbLine
 10
714.7999999999998
 20
487.3124999999998
 30
0.0
 11
676.4624999999998
 21
492.4375
 31
0.0
  0
LINE
  5
74
330
34
100
AcDbEntity
  8
検査君２
  6
Continuous
 62
     0
100
AcDbLine
 10
671.1875
 20
337.8624999999999
 30
0.0
 11
788.7875
 21
347.6625
 31
0.0
  0
LINE
  5
75
330
34
100
AcDbEntity
  8
検査君２
  6
Continuous
 62
     0
100
AcDbLine
 10
392.725
 20
253.6375
 30
0.0
 11
288.475
 21
284.9875
 31
0.0
  0
LINE
  5
76
330
34
100
AcDbEntity
  8
検査君２
  6
Continuous
 62
     0
100
AcDbLine
 10
286.5375
 20
331.1625
 30
0.0
 11
288.475
 21
284.9875
 31
0.0
  0
LINE
  5
77
330
34
100
AcDbEntity
  8
検査君２
  6
Continuous
 62
     0
100
AcDbLine
 10
406.5875
 20
337.8624999999999
 30
0.0
 11
288.9874999999999
 21
347.6625
 31
0.0
  0
LINE
  5
78
330
34
100
AcDbEntity
  8
検査君２
  6
Continuous
 62
     0
100
AcDbLine
 10
818.1874999999999
 20
320.7125
 30
0.0
 11
864.7375
 21
419.3624999999998
 31
0.0
  0
LINE
  5
79
330
34
100
AcDbEntity
  8
検査君２
  6
Continuous
 62
     0
100
AcDbLine
 10
818.1874999999999
 20
320.7125
 30
0.0
 11
782.2875
 21
293.0749999999998
 31
0.0
  0
LINE
  5
7A
330
34
100
AcDbEntity
  8
検査君２
  6
Continuous
 62
     0
100
AcDbLine
 10
726.3624999999998
 20
482.05
 30
0.0
 11
776.5375
 21
514.2625
 31
0.0
  0
LINE
  5
7B
330
34
100
AcDbEntity
  8
検査君２
  6
Continuous
 62
     0
100
AcDbLine
 10
734.3624999999998
 20
487.1999999999998
 30
0.0
 11
756.9374999999999
 21
521.6124999999998
 31
0.0
  0
LINE
  5
7C
330
34
100
AcDbEntity
  8
検査君２
  6
Continuous
 62
     0
100
AcDbLine
 10
609.9125
 20
533.75
 30
0.0
 11
641.95
 21
580.8624999999998
 31
0.0
  0
LINE
  5
7D
330
34
100
AcDbEntity
  8
検査君２
  6
Continuous
 62
     0
100
AcDbLine
 10
286.1125
 20
291.0749999999998
 30
0.0
 11
244.8749999999999
 21
336.8
 31
0.0
  0
LINE
  5
7E
330
34
100
AcDbEntity
  8
検査君２
  6
Continuous
 62
     0
100
AcDbLine
 10
244.8749999999999
 20
336.8
 30
0.0
 11
215.4875
 21
389.9624999999998
 31
0.0
  0
LINE
  5
7F
330
34
100
AcDbEntity
  8
検査君２
  6
Continuous
 62
     0
100
AcDbLine
 10
244.8875
 20
500.2124999999998
 30
0.0
 11
215.4875
 21
389.9624999999998
 31
0.0
  0
LINE
  5
80
330
34
100
AcDbEntity
  8
検査君２
  6
Continuous
 62
     0
100
AcDbLine
 10
335.5375
 20
477.5125
 30
0.0
 11
306.1374999999998
 21
504.4624999999999
 31
0.0
  0
LINE
  5
81
330
34
100
AcDbEntity
  8
検査君２
  6
Continuous
 62
     0
100
AcDbLine
 10
345.3374999999998
 20
489.7624999999998
 30
0.0
 11
301.2375
 21
533.8624999999998
 31
0.0
  0
LINE
  5
82
330
34
100
AcDbEntity
  8
検査君２
  6
Continuous
 62
     0
100
AcDbLine
 10
350.2375
 20
492.2125
 30
0.0
 11
325.7375
 21
531.4125
 31
0.0
  0
LINE
  5
83
330
34
100
AcDbEntity
  8
検査君２
  6
Continuous
 62
     0
100
AcDbLine
 10
475.4375
 20
241.7375
 30
0.0
 11
423.8125
 21
302.3
 31
0.0
  0
LINE
  5
84
330
34
100
AcDbEntity
  8
検査君２
  6
Continuous
 62
     0
100
AcDbLine
 10
423.8125
 20
302.3
 30
0.0
 11
395.3
 21
377.4
 31
0.0
  0
LINE
  5
85
330
34
100
AcDbEntity
  8
検査君２
  6
Continuous
 62
     0
100
AcDbLine
 10
475.4375
 20
241.7375
 30
0.0
 11
503.7374999999998
 21
232.2249999999999
 31
0.0
  0
LINE
  5
86
330
34
100
AcDbEntity
  8
検査君２
  6
Continuous
 62
     0
100
AcDbLine
 10
392.725
 20
253.6375
 30
0.0
 11
473.2874999999999
 21
244.2625
 31
0.0
  0
LINE
  5
87
330
34
100
AcDbEntity
  8
検査君２
  6
Continuous
 62
     0
100
AcDbLine
 10
653.9625
 20
302.3
 30
0.0
 11
682.475
 21
377.4
 31
0.0
  0
LINE
  5
88
330
34
100
AcDbEntity
  8
検査君２
  6
Continuous
 62
     0
100
AcDbLine
 10
602.3374999999998
 20
241.7375
 30
0.0
 11
653.9625
 21
302.3
 31
0.0
  0
LINE
  5
89
330
34
100
AcDbEntity
  8
検査君２
  6
Continuous
 62
     0
100
AcDbLine
 10
602.3374999999998
 20
241.7375
 30
0.0
 11
574.0249999999998
 21
232.2249999999999
 31
0.0
  0
LINE
  5
8A
330
34
100
AcDbEntity
  8
検査君２
  6
Continuous
 62
     0
100
AcDbLine
 10
685.0499999999998
 20
253.6375
 30
0.0
 11
604.475
 21
244.2625
 31
0.0
  0
LINE
  5
8B
330
34
100
AcDbEntity
  8
検査君２
  6
Continuous
 62
     0
100
AcDbLine
 10
464.775
 20
484.7875
 30
0.0
 11
401.6874999999997
 21
499.5625
 31
0.0
  0
LINE
  5
8C
330
34
100
AcDbEntity
  8
検査君２
  6
Continuous
 62
     0
100
AcDbLine
 10
395.3
 20
377.4
 30
0.0
 11
401.6874999999997
 21
499.5625
 31
0.0
  0
LINE
  5
8D
330
34
100
AcDbEntity
  8
検査君２
  6
Continuous
 62
     0
100
AcDbLine
 10
613.0
 20
484.7875
 30
0.0
 11
676.0874999999998
 21
499.5625
 31
0.0
  0
LINE
  5
8E
330
34
100
AcDbEntity
  8
検査君２
  6
Continuous
 62
     0
100
AcDbLine
 10
682.475
 20
377.4
 30
0.0
 11
676.0874999999998
 21
499.5625
 31
0.0
  0
LINE
  5
8F
330
34
100
AcDbEntity
  8
検査君２
  6
Continuous
 62
     0
100
AcDbLine
 10
369.8374999999998
 20
487.3124999999998
 30
0.0
 11
401.2375
 21
491.0375
 31
0.0
  0
LINE
  5
90
330
34
100
AcDbEntity
  8
検査君２
  6
Continuous
 62
     0
100
AcDbLine
 10
426.1375
 20
493.8374999999998
 30
0.0
 11
494.9625
 21
504.2625
 31
0.0
  0
ARC
  5
91
330
34
100
AcDbEntity
  8
検査君２
  6
Continuous
 62
     0
100
AcDbCircle
 10
538.8875
 20
407.075
 30
0.0
 40
107.387711
100
AcDbArc
 50
26.575001
 51
153.412506
  0
ARC
  5
92
330
34
100
AcDbEntity
  8
検査君２
  6
Continuous
 62
     0
100
AcDbCircle
 10
610.2625
 20
377.6
 30
0.0
 40
184.4967719999999
100
AcDbArc
 50
155.1374969999999
 51
211.3000029999999
  0
ARC
  5
93
330
34
100
AcDbEntity
  8
検査君２
  6
Continuous
 62
     0
100
AcDbCircle
 10
467.4999999999998
 20
377.6
 30
0.0
 40
184.4967719999999
100
AcDbArc
 50
328.6875
 51
24.85
  0
LINE
  5
94
330
34
100
AcDbEntity
  8
検査君２
  6
Continuous
 62
     0
100
AcDbLine
 10
530.2625
 20
514.125
 30
0.0
 11
538.8875
 21
522.7374999999998
 31
0.0
  0
LINE
  5
95
330
34
100
AcDbEntity
  8
検査君２
  6
Continuous
 62
     0
100
AcDbLine
 10
538.8875
 20
522.7374999999998
 30
0.0
 11
547.5125
 21
514.125
 31
0.0
  0
ENDBLK
  5
96
330
34
100
AcDbEntity
  8
検査君２
100
AcDbBlockEnd
  0
ENDSEC
  0
SECTION
  2
ENTITIES
  0
INSERT
  5
97
330
A
100
AcDbEntity
  8
検査君２
100
AcDbBlockReference
  2
PSPBLOCK_00000000
 10
0.0
 20
0.0
 30
0.0
  0
ENDSEC
  0
SECTION
  2
OBJECTS
  0
DICTIONARY
  5
19
330
0
100
AcDbDictionary
281
     1
  3
ACAD_GROUP
350
1A
  3
ACAD_LAYOUT
350
1E
  3
ACAD_MLINESTYLE
350
1B
  3
ACAD_PLOTSETTINGS
350
22
  3
ACAD_PLOTSTYLENAME
350
1F
  3
AcDbVariableDictionary
350
9D
  3
DWGPROPS
350
A7
  0
DICTIONARY
  5
1A
102
{ACAD_REACTORS
330
19
102
}
330
19
100
AcDbDictionary
281
     1
  0
DICTIONARY
  5
1E
102
{ACAD_REACTORS
330
19
102
}
330
19
100
AcDbDictionary
281
     1
  3
Layout1
350
21
  3
Model
350
20
  0
DICTIONARY
  5
1B
102
{ACAD_REACTORS
330
19
102
}
330
19
100
AcDbDictionary
281
     1
  3
Standard
350
1C
  0
DICTIONARY
  5
22
102
{ACAD_REACTORS
330
19
102
}
330
19
100
AcDbDictionary
281
     1
  0
ACDBDICTIONARYWDFLT
  5
1F
102
{ACAD_REACTORS
330
19
102
}
330
19
100
AcDbDictionary
281
     1
  3
Normal
350
1D
100
AcDbDictionaryWithDefault
340
1D
  0
DICTIONARY
  5
9D
102
{ACAD_REACTORS
330
19
102
}
330
19
100
AcDbDictionary
281
     1
  3
DIMASSOC
350
9E
  0
XRECORD
  5
A7
102
{ACAD_REACTORS
330
19
102
}
330
19
100
AcDbXrecord
280
     1
  1
DWGPROPS COOKIE
  2
添景データ検査君２
  3

  4
cad office DRAW THE LINE
  6

  7

  8

  9

300
=
301
=
302
=
303
=
304
=
305
=
306
=
307
=
308
=
309
=
 40
0.0014323032407407
 41
2453327.772673067
 42
2453327.776640983
  1

 90
        0
  0
LAYOUT
  5
21
102
{ACAD_REACTORS
330
1E
102
}
330
1E
100
AcDbPlotSettings
  1

  2

  4

  6

 40
0.0
 41
0.0
 42
0.0
 43
0.0
 44
0.0
 45
0.0
 46
0.0
 47
0.0
 48
0.0
 49
0.0
140
0.0
141
0.0
142
1.0
143
1.0
 70
     0
 72
     0
 73
     0
 74
     0
  7

 75
     0
147
1.0
148
0.0
149
0.0
100
AcDbLayout
  1
Layout1
 70
     0
 71
     1
 10
0.0
 20
0.0
 11
12.0
 21
9.0
 12
0.0
 22
0.0
 32
0.0
 14
1.000000000000000E+20
 24
1.000000000000000E+20
 34
1.000000000000000E+20
 15
-1.000000000000000E+20
 25
-1.000000000000000E+20
 35
-1.000000000000000E+20
146
0.0
 13
0.0
 23
0.0
 33
0.0
 16
1.0
 26
0.0
 36
0.0
 17
0.0
 27
1.0
 37
0.0
 76
     0
330
B
  0
LAYOUT
  5
20
102
{ACAD_REACTORS
330
1E
102
}
330
1E
100
AcDbPlotSettings
  1

  2

  4

  6

 40
0.0
 41
0.0
 42
0.0
 43
0.0
 44
0.0
 45
0.0
 46
0.0
 47
0.0
 48
0.0
 49
0.0
140
0.0
141
0.0
142
1.0
143
1.0
 70
  1024
 72
     0
 73
     0
 74
     0
  7

 75
     0
147
1.0
148
0.0
149
0.0
100
AcDbLayout
  1
Model
 70
     0
 71
     0
 10
0.0
 20
0.0
 11
0.0
 21
0.0
 12
0.0
 22
0.0
 32
0.0
 14
0.0
 24
0.0
 34
0.0
 15
0.0
 25
0.0
 35
0.0
146
0.0
 13
0.0
 23
0.0
 33
0.0
 16
0.0
 26
0.0
 36
0.0
 17
0.0
 27
0.0
 37
0.0
 76
     0
330
A
  0
MLINESTYLE
  5
1C
102
{ACAD_REACTORS
330
1B
102
}
330
1B
100
AcDbMlineStyle
  2
STANDARD
 70
     0
  3

 62
     0
 51
90.0
 52
90.0
 71
     2
 49
0.5
 62
   256
  6
BYLAYER
 49
-0.5
 62
   256
  6
BYLAYER
  0
ACDBPLACEHOLDER
  5
1D
102
{ACAD_REACTORS
330
1F
102
}
330
1F
  0
DICTIONARYVAR
  5
9E
102
{ACAD_REACTORS
330
9D
102
}
330
9D
100
DictionaryVariables
280
     0
  1
1
  0
ENDSEC
  0
EOF
